Oops, an error
Loading. Please wait.

Crown On The Ground tab

9,147 views 6 this week
1 commentread comment
1 2 3 4 5
x 4
add to favorites
×
Save as Personal and add changes to this tab that will be seen only by you. Learn more ›
×
You can save this tab as Personal to edit and correct it or add notes. All changes will be seen only by you. Learn more »
launch autoscroll
font size
0
reset
how to read this tab
guitar tuner
edit
Autoscroll
slow
fast
+/-
esc
set tempo
stop
Not 100% positive but this sounds really similar if it's incorrect

Intro

e--6b7-77-77-777-6b7-77-77-777-|
B------------------------------|
G------------------------------|   Repeat as needed
D------------------------------|
A------------------------------|
E------------------------------|

Chords are the same throughout the song its just the rhythm or effects that change.

Chord progression:

    B       G#m       F#
e---7-------4--------2--|
B---7-------4--------2--|
G---8-------4--------3--|   Repeat as needed.
D---9-------6--------4--|
A---9-------6--------4--|
E---7-------4--------2--|


Great song! Hope this helps!!!

            
            
Suggest correction
Creating personal tab
Creating personal tab
You can edit any tab online and save it as your Personal.

You can edit, replace or remove any tab part or add personal notes – all changes will be seen only by you.

Personal tabs can be accessed anytime from any device, even offline.
Learn more »
comments
print report bad tab
1 comment total.
+1 reply
METAL MILITIA1 10 Sep 21, 2011 03:29 AM

Good job mate, except that the G# should be a G#m, other than that it's all good.

guest
Wanna post a correction for this tab? Suggest correction