Oops, an error
Loading. Please wait.

I Can Only Stare Tab

64 views 9 this week
no commentswrite comment
1 2 3 4 5
3 more votes to show rating
add to favorites
launch autoscroll
font size
0
reset
how to read this tab
guitar tuner
Autoscroll
slow
fast
+/-
esc
set tempo
stop
Help us to improve Ultimate-Guitar.com Take our survey!
×
Author
Difficulty
[Intro / Main Riff]

e|---2-----2-----2-----2-----2-----2-----5-----5-----5-----4-----4-----4-----|
B|-----4-----4-----------2-----2-----------2-----2-----------2-----2---------|
G|-------2-----2-----2-----2-----2-----2-----2-----2-----2-----2-----2---2---|
D|---------------------------------------------------------------------------|
A|---------------------------------------------------------------------------|
E|---------------------------------------------------------------------------|


[Verse / Chorus] - A / D / A /F#m

e|---0--------------------------------2--------------------------------------|
B|---2--------------------------------3--------------------------------------|
G|---2--------------------------------2--------------------------------------|
D|---2--------------------------------0--------------------------------------|
A|---0-----------------------------------------------------------------------|
E|---------------------------------------------------------------------------|

e|---0--------------------------------2--------------------------------------|
B|---2--------------------------------2--------------------------------------|
G|---2--------------------------------2--------------------------------------|
D|---2--------------------------------4--------------------------------------|
A|---0--------------------------------4--------------------------------------|
E|------------------------------------2--------------------------------------|


[Gimmick during Chorus]

e|---------------------------------------------------------------------------|
B|---------------------------------------------------------------------------|
G|-----8-8---8---8---6-----------8-8-8-8-8-8-8-8-6-6-6-6-6-6-6-6-------------|
D|---------7---7---7---------------------------------------------------------|
A|---------------------------------------------------------------------------|
E|---------------------------------------------------------------------------|


[Solo - Synthesizer]

e|-----2-4-10-9--7-9-7--5---------------2-4-10-9--7-9-7--5-------------------|
B|---------------------------------------------------------------------------|
G|---------------------------------------------------------------------------|
D|---------------------------------------------------------------------------|
A|---------------------------------------------------------------------------|
E|---------------------------------------------------------------------------|


Structure of the song

Intro riff x 1

Chorus x 2

Verse x 2 

Verse (along Main Riff) x 2

Chorus (along gimmick) x 4

Chorus (along solo) x 4

Verse x 2

Verse (along Main Riff) x 2

Chorus (along gimmick) x 4

Chorus (along solo) x 4

Verse (synthesizer only) x 1

Main riff x 1
Suggest correction
Give kudos to tab author, rate the tab!
1 2 3 4 5
comments
print report bad tab
guest
You may want to rate the tab now too:
select rating
Wanna post a correction for this tab? Suggest correction