Oops, an error
Loading. Please wait.

Its Just Us Now Tab

109 views 24 this week
no commentswrite comment
1 2 3 4 5
2 more votes to show rating
add to favorites
launch autoscroll
font size
0
reset
how to read this tab
guitar tuner
Autoscroll
slow
fast
+/-
esc
set tempo
stop
Help us to improve Ultimate-Guitar.com Take our survey!
×
Author
Difficulty
Tuning
intermediate
D A D G B E
About this tab version
Transcribed from the video on Youtube. Was this info helpful? Yes No
[Intro]

  G1 
e|--------------------------------------|----------------------------------------|
B|--------------------------------------|----------------------------------------|
G|-7-7--7-7-7---------------------------|-7-7------------------------------------|
D|-7-7--7-7-7---------------------------|-7-7------------------------------------|
A|-5-5--5-5-5---------------------------|-5-5------------------------------------|
D|--------------------------------------|----------------------------------------|

  G1
e|--------------------------------------|----------------------------------------|
B|--------------------------------------|----------------------------------------|
G|-7-7----------------------------------|-7-7------------------------------------| 
D|-7-7----------------------------------|-7-7------------------------------------|
A|-5-5----------------------------------|-5-5------------------------------------|
D|--------------------------------------|----------------------------------------|
 |G2
e|--------------------------------------|----------------------------------------|
B|--------------------------------------|----------------------------------------|
G|-----9b11-9b11r9-7--6-6b7r6-----------|-----9b11-9b11r9-7--6-6b7r6-------------| 
D|----------------------------9--8------|----------------------------9--8--------|
A|----------------------------------9-7-|-5\-------------------------------9-7---|
D|--------------------------------------|----------------------------------------|


[Verse]

  G1
e|-----------------------------------------|----------------------------------------|
B|-----------------------------------------|----------------------------------------|
G|-7-7-------------------------------------|-7-7------------------------------------| x4 
D|-7-7--------------------9--9-------------|-7-7------------------9-9---------------|
A|-5-5--------------------9--9-------------|-5-5------------------9-9---------------|
D|------------------------9--9--------4-2\-|----------------------9-9---------4-2\--|
 |G2
e|-----------------------------------------|----------------------------------------|
B|-----------------------------------------|----------------------------------------| x4
G|-------9b11-9b11r9-7--6-6b7r6------------|-----9b11-9b11r9-7--6-6b7r6-------------| 
D|------------------------------9--8-------|----------------------------9--8--------|
A|-5\---------------------------------9-7--|-5\-------------------------------9-7---|
D|-----------------------------------------|----------------------------------------|


[Chorus]

  G1
e|----------------------------------|--------------------------------|
B|----------------------------------|--------------------------------|
G|-7\-------------------------------|-7\-----------------------------| 
D|-7\-------2--2----9-9---8--8-7----|-7\------2--2----9-9---8--8-7---|
A|-5\-------2--2----9-9---8--8-7----|-5\------2--2----9-9---8--8-7---|
D|----------2--2----9-9---8--8-7----|---------2--2----9-9---8--8-7---|
 |G2
e|----------------------------------|--------------------------------|
B|-10---------------12----11--------|-10--------------12----11-------| 
G|----------------------------------|--------------------------------|
D|----------------------------------|--------------------------------|
A|----------------------------------|--------------------------------|
D|----------------------------------|--------------------------------|


[Verse]

  G1
e|-----------------------------------------|----------------------------------------|
B|-----------------------------------------|----------------------------------------|
G|-7-7-------------------------------------|-7-7------------------------------------| x3 
D|-7-7--------------------9--9-------------|-7-7------------------9-9---------------|
A|-5-5--------------------9--9-------------|-5-5------------------9-9---------------|
D|------------------------9--9--------4-2\-|----------------------9-9---------4-2\--|
 |G2
e|-----------------------------------------|----------------------------------------|
B|-----------------------------------------|----------------------------------------| x3
G|-------9b11-9b11r9-7--6-6b7r6------------|-----9b11-9b11r9-7--6-6b7r6-------------| 
D|------------------------------9--8-------|----------------------------9--8--------|
A|-5\---------------------------------9-7--|-5\-------------------------------9-7---|
D|-----------------------------------------|----------------------------------------|


[Chorus]

  G1
e|----------------------------------|--------------------------------|
B|----------------------------------|--------------------------------|
G|-7\-------------------------------|-7\-----------------------------| x2
D|-7\-------2--2----9-9---8--8-7----|-7\------2--2----9-9---8--8-7---|
A|-5\-------2--2----9-9---8--8-7----|-5\------2--2----9-9---8--8-7---|
D|----------2--2----9-9---8--8-7----|---------2--2----9-9---8--8-7---|
 |G2
e|----------------------------------|--------------------------------|
B|-10---------------12----11--------|-10--------------12----11-------| x2
G|----------------------------------|--------------------------------|
D|----------------------------------|--------------------------------|
A|----------------------------------|--------------------------------|
D|----------------------------------|--------------------------------|


[Outro]

e|---------------------------------------------------------------------------------------------|
B|---------[7]--------------------------------------[7]----------------------------------------|
G|-7\---------------------------------------------------------------------------------7\-------|
D|-7\---[7]---[7]--------------------------------[7]---[7]----------------------------7\-------|
A|-5\----------------------------------------5\---------------------------------------5\-------|
D|-----------------7---4-7-8-9---11-8---4-2-----------------7---4-7-8-9---11-8---4-2-----------|


************************************

| b   Bend
| br  Bend release
| \   Slide down
|[x] Natural Harmonic

************************************
Suggest correction
Give kudos to tab author, rate the tab!
1 2 3 4 5
comments
print report bad tab
guest
You may want to rate the tab now too:
select rating
Wanna post a correction for this tab? Suggest correction