Oops, an error
Loading. Please wait.

Babylon Is Falling Bass Tab

4,743 views 3 this week
no commentswrite comment
1 2 3 4 5
1 last vote to show rating
add to favorites
launch autoscroll
font size
0
reset
guitar tuner
Autoscroll
slow
fast
+/-
esc
set tempo
stop
Help us to improve Ultimate-Guitar.com Take our survey!
×
Author
Difficulty
novice
-------------------------------------------------------------------------------
		       BABYLON IS FALLING - SLIGHTLY STOOPID
-------------------------------------------------------------------------------

Tabbed By : Tom Murdock	
e-mail: t.murdock@live.com

Another 1-riff song by Slightly Stoopid.

Bass enters at 00:07 with:
G|---------------------|
D|---------------------|
A|----------3----------|
E|-3-3-5-5----5-3-5-5--|

Main riff:
G|-------------------------------|
D|----------7777-----------------|
A|--7777---5--------55555---7777-|
E|-5---------------3-----555-----|


| /  slide up
| \  slide down
| h  hammer-on
| p  pull-off
| ~  vibrato
| +  harmonic
| x  Mute note
===============================================================================
Suggest correction
Give kudos to tab author, rate the tab!
1 2 3 4 5
comments
print report bad tab
guest
You may want to rate the tab now too:
select rating
Wanna post a correction for this tab? Suggest correction