Oops, an error
Loading. Please wait.

Bandelero bass

version 1
version 1

Whole song

6,007 views 24 this week
1 commentread comment
1 2 3 4 5
x 4
add to favorites
×
Save as Personal and add changes to this tab that will be seen only by you. Learn more ›
×
You can save this tab as Personal to edit and correct it or add notes. All changes will be seen only by you. Learn more »
launch autoscroll
font size
0
reset
guitar tuner
edit
Autoscroll
slow
fast
+/-
esc
set tempo
stop
Author
Difficulty
song: Bandelero
Artist: Slightly Stoopid
Album: close to the sun


come in at 0:03

Intro:


G--------------|
D--------------|
A-7--9-9-------|   X5
E7--7---7------|

Intro continued:

G------------------|
D6-----------------|
A--9-7-----9-9-----|  X2
E--------7----7----|

G----------------------|
D6-------------7-6-----|
A--9-7---777-7-----9-7-|
E------7----7----------|


G-------------------------------------------|
D---------6-------------6---------------7-6-|
A---9-9-----9-7---9-9-----9-7---777---7-----|
E-7-----7-------7-----7-------7-----7-------|

Verse:

G------------------------|
D-----9----------7-6-6---|
A-777---9--9-9-9---------|  X8
E------------------------|

G-------------------------------------------------------|
D-------------6-------------6-------------6-------------|
A---7---9-9-----9-7---9-9-----9-7---9-9-----9-7---9-9---|
E-7---7-----7-------7-----7-------7-----7-------7-----7-|


G------------------|
D------------------|
A---77777---9-9----| X2
E-7-------7-----7--|

G-------------------|
D-6-----------------|
A---9-77777---9-9---|  X2
E-----------7-----7-|


Intstrumental break:

G-------------------------|
D-----9----------7-6-6----|
A-7-7---9--9-9-9----------|   X4
E-------------------------|

Verse:

G------------------------|
D-----9----------7-6-6---|
A-7-7---9--9-9-9---------|  X4
E------------------------|


G---------------|
D---------------|
A---7---9-9-----|  X3
E-7---7-----7---|


G-------------------|
D-------------------|
A---77777---9-9-----|  X2
E-7-------7-----7---|

G--------------------|
D-6------------------|
A---9-77777---9-9----| X2
E-----------7-----7--|

Do this for the rest of the song...


G----------------------|
D-----9----------7-6-6-|
A-777---9--9-9-9-------|
E----------------------|

End on...


G--------------------|
D--------------------|
A-7/-----------------|
E--------------------|


This is pretty close to what he does in the song. if any questions just e-mail me
at lostboy90998@yahoo.com

            
            
Suggest correction
Creating personal tab
Creating personal tab
You can edit any tab online and save it as your Personal.

You can edit, replace or remove any tab part or add personal notes – all changes will be seen only by you.

Personal tabs can be accessed anytime from any device, even offline.
Learn more »
comments
print report bad tab
1 comment total.
0 reply
sly&robbie 10 Feb 14, 2011 12:18 PM

Great job on this tab!! Its much more accurate than the others. However, I have a few suggestions.

I think the 5th bar (the one with the X8 after it) might instead be

G-----------------------|
D-----9-6--------7-6----|
A-7-7----7--9-9-9----9--| X8
E-----------------------|

Also, the 3rd bar might be

G-------------------------|
D6----------------7-6-----|
A--9-7--7-7-7--9-9----9-7-|
E------7-7----------------|

Otherwise awesome work!!

guest
You may want to rate the tab now too:
select rating
Wanna post a correction for this tab? Suggest correction