Oops, an error
Loading. Please wait.

Bandelero bass

version 2
version 2

Whole song

1,329 views 1 this week
2 commentsread comments
1 2 3 4 5
1 last vote to show rating
add to favorites
×
Save as Personal and add changes to this tab that will be seen only by you. Learn more ›
×
You can save this tab as Personal to edit and correct it or add notes. All changes will be seen only by you. Learn more »
launch autoscroll
font size
0
reset
guitar tuner
edit
Autoscroll
slow
fast
+/-
esc
set tempo
stop
Author
Difficulty
-------------------------------------------------------------------------------
			   BANDELERO - Slightly Stoopid
-------------------------------------------------------------------------------

Tabbed By : Tom Murdock
e-mail: t.murdock@live.com

(00:00) INTRO
G|---------------|---------------|---------------|---------------|
D|-0-2---2-4-4---|-0-2---2-4-4---|-0-2---2-4-4---|-0-2---2-4-4---|
A|-------------2-|-------------2-|-------------2-|-------------2-|
E|---------------|---------------|---------------|---------------|

(00:14)
G|----------------1-|----------------1-|----------------1-|------------------|
D|-0-2---2-4-4-----4|-0-2---2-4-4-----4|-0-2---2-4-4-----4|2--0202--44-7-6-4-|
A|-------------2----|-------------2----|-------------2----|------------------|
E|------------------|------------------|------------------|------------------|

(00:25)
G|------------|---------------1-|-----------1-|------------------|
D|-2--2-4-4---|-0-2--2-4-4-----4|2--2-4-4----2|2--0202--44-7-6-4-|
A|----------2-|------------2----|---------2---|------------------|
E|------------|-----------------|-------------|------------------|

(00:36) Verse
G|---44--------------|
D|-22--2-24-44-7-6-4-|
A|-------------------|
E|-------------------|


That is every riff you see in the song. I'm not typing out the orders, you can figure 
out yourself. But as I just typed, that's every bar you'll come across in the song.

Enjoy, Stoopid fans!


| /  slide up
| \  slide down
| h  hammer-on
| p  pull-off
| ~  vibrato
| +  harmonic
| x  Mute note
===============================================================================

            
            
Suggest correction
Creating personal tab
Creating personal tab
You can edit any tab online and save it as your Personal.

You can edit, replace or remove any tab part or add personal notes – all changes will be seen only by you.

Personal tabs can be accessed anytime from any device, even offline.
Learn more »
Give kudos to tab author, rate the tab!
1 2 3 4 5
comments
print report bad tab
2 comments total.
0 reply
BassGuy20 10 Feb 08, 2011 07:42 AM

Amazing tabin' guy. greatly appreciate this!!

0 reply
sly&robbie 10 Feb 14, 2011 04:33 PM

cool tab but i think ver#1 is the correct version. This one has the same note spacing so it sounds similar but its in a different key. still a cool variation though!

guest
You may want to rate the tab now too:
select rating
Wanna post a correction for this tab? Suggest correction