Oops, an error
Loading. Please wait.

Bandelero bass

version 3
version 3

Whole song

1,731 views 1 this week
1 commentread comment
1 2 3 4 5
1 last vote to show rating
add to favorites
×
Save as Personal and add changes to this tab that will be seen only by you. Learn more ›
×
You can save this tab as Personal to edit and correct it or add notes. All changes will be seen only by you. Learn more »
launch autoscroll
font size
0
reset
guitar tuner
edit
Autoscroll
slow
fast
+/-
esc
set tempo
stop
Author
-------------------------------------------------------------------------------
			     BANDELERO - Slightly Stoopid
-------------------------------------------------------------------------------

Tabbed By : Wesley Lai
e-mail: stinger12345@aol.com

Tuning:Standard

Intro

5x
G|---------------------------------------------------------------------------|
D|---------------------------------------------------------------------------|
A|---7----99-----------------------------------------------------------------|
E|-7----9----7---------------------------------------------------------------|

3x
G|---------------------------------------------------------------------------|
D|-6-------------------------------------------------------------------------|
A|---9-7----99---------------------------------------------------------------|
E|--------9----7-------------------------------------------------------------|


G|---------------------------------------------------------------------------|
D|-6-------------76----------------------------------------------------------|
A|---9-7---7-7-99--9---------------------------------------------------------|
E|--------9-9----------------------------------------------------------------|
Repeat last 2 parts


Verse
2x
G|-------------------------|-------------------------------------------------|
D|----96--------76---------|-------------76----------------------------------|
A|-77---7-79--99--9----3x--|--7---7-7--99--9---------------------------------|
E|-------------------------|-----9-9-----------------------------------------|


Pre-Chorus

3x
G|---------------------------------------------------------------------------|
D|----------6----------------------------------------------------------------|
A|-7----99---9---------------------------------------------------------------|
E|----9----7-----------------------------------------------------------------|

Chorus

G|--------------------------|------------------------------------------------|
D|----------------6---------|-----------76-----------------------------------|
A|-7---7-77-9-9----9----x4--|-7---7-7-99--9----------------------------------|
E|----9-9-------7-----------|----9-9-----------------------------------------|

Just repeat that a few times and you're done


            
            
Suggest correction
Creating personal tab
Creating personal tab
You can edit any tab online and save it as your Personal.

You can edit, replace or remove any tab part or add personal notes – all changes will be seen only by you.

Personal tabs can be accessed anytime from any device, even offline.
Learn more »
Give kudos to tab author, rate the tab!
1 2 3 4 5
comments
print report bad tab
1 comment total.
0 reply
cliffordmui 10 Jun 07, 2012 03:03 PM

Definitly the best tab for this song

guest
You may want to rate the tab now too:
select rating
Wanna post a correction for this tab? Suggest correction