Oops, an error
Loading. Please wait.

Basher bass

version 1
version 1

Whole song

4,367 views 6 this week
2 commentsread comments
1 2 3 4 5
2 more votes to show rating
add to favorites
×
Save as Personal and add changes to this tab that will be seen only by you. Learn more ›
×
You can save this tab as Personal to edit and correct it or add notes. All changes will be seen only by you. Learn more »
launch autoscroll
font size
0
reset
guitar tuner
edit
Autoscroll
slow
fast
+/-
esc
set tempo
stop
Song: Basher
Band: Slightly Stoopid
Album: Closer To The Sun
Tabbed by Ryan VanPatten(futrebartender5@netscape.net)

Few notes in the beginning
--------------|
--------------|
----------5---|
-----4-5------|


PART A: 00:00 and (01:17)
----------------------------------------------------------|
----------------------------------------------------------|
-7-777---------7-777-9-7------5-555-------5-555-------5---|
-------7h9-7-------------9-7--------5h7-5-------5h7-5-----|

PART B: Faster Part (00:53) and (02:05)
-----------------------------|
-----------------------------|
-77-9-7------5---------------|
--------9-7-----5h7-5-5h7-5--|

            
            
Suggest correction
Creating personal tab
Creating personal tab
You can edit any tab online and save it as your Personal.

You can edit, replace or remove any tab part or add personal notes – all changes will be seen only by you.

Personal tabs can be accessed anytime from any device, even offline.
Learn more »
Give kudos to tab author, rate the tab!
1 2 3 4 5
comments
print report bad tab
2 comments total.
0 reply
Fourstring Riff 30 Oct 29, 2006 04:14 AM

This tab is slightly wrong, though I give credit because I used this tab as a jump off point. This is more like how it goes...play by play

Song: Basher
Band: Slightly Stoopid
Album: Closer To The Sun
Tabbed: Ryan Reed

Pickup (:06)
---------------|
---------------|
---------5--7--|
--55-5h7-------|


PART 1
--------------------------------------------------------------|
--------------------------------------------------------------|
-7--777--5---5-7--777-9-7-------5--555—-7p5--5--555-----5-----|
----------h7--------------9-7--------------7--------5h7-------|

PART 2
------------------------------------------------------------|
------------------------------------------------------------|
-7--777-5---5-7--777-9-7-------5--555-7p5--5--------------5-|
---------h7--------------9-7-------------7----5-5h7p5--5h7--|


PART C
---------------------------------------|
---------------------------------------|
-7--77-7-9-7------5----------------5---|
-------------9-7-5----5-5h7p5--5h7-----|


1 x2
2 x2
3 x4
1 x1
2 x2
1 x1
2 x1
3 x4 end

-1 reply
StillSublime 41 Mar 05, 2012 05:51 AM

So I'd just like to let you know that the intro to the song is pretty much the bass tab, with slight variations. My tab has the intro for guitar, but it's the same for bass.

guest
Wanna post a correction for this tab? Suggest correction