Oops, an error
Loading. Please wait.

Castles Of Sand tab

version 1
version 1

Whole song

2,654 views 1 this week
2 commentsread comments
1 2 3 4 5
x 3
add to favorites
×
Save as Personal and add changes to this tab that will be seen only by you. Learn more ›
×
You can save this tab as Personal to edit and correct it or add notes. All changes will be seen only by you. Learn more »
launch autoscroll
font size
0
reset
how to read this tab
guitar tuner
edit
Autoscroll
slow
fast
+/-
esc
set tempo
stop
Author
Difficulty
-------------------------------------------------------------------------------
                             Castles of Sand - Slightly Stoopid
-------------------------------------------------------------------------------
Tabbed by: jojobesty
Tuning: standard

Intro:
     D          C         D          C          D          C
E|-----------------------------------------------------------|
B|-------7--------------------7---------------------7--------|
G|---------7---------------------7---------------------7-----|
D|-----------------------------------------------------------|
A|-----------------------------------------------------------|
E|-----------------------------------------------------------|

A  -  A#  -  A  -  A#  -  A  -  A#  -  C

                                          
E|----------------------------------------------------------------------------|
B|---10------------------10---------------8-----------8-----------------------|
G|------11----11------------11----11--------9----9------9-----9---------------|
D|---------12-----12-----------12----12-------10---10------10---10------------|
A|----------------------------------------------------------------------------|
E|----------------------------------------------------------------------------|
                                          
E|----------------------------------------------------------------------------|
B|---10------------------10-----------------13---------------13---------------|
G|------11----11------------11----11-----------12----13---------12----13------|
D|---------12-----12-----------12----12-----------14----14---------14----14---|
A|----------------------------------------------------------------------------|
E|----------------------------------------------------------------------------|

   D                            C
strike down the one sir come criticise you
   D                            C
strike down the one sir come jeprodise you, come jeprodise you
   D
and like a new grown seed
   C             
the man come and chop you down, he come chop you down
   D                                     C
and when your reaching for that sunshine he come chop you down, he come chop you down
   C                      D           C         D       C 
the man come he say to me
 D                                      C
in the morning time youll see me by the ocean floor
  D
building castles
                 C
building castles made of sand
D                                             C
said if your good to me you know that ill be good to you
   D                                 C
you never really understood the meaning of the truth

E|---------------------------------|
B|-10--10--10--12--10--10----------|
G|-------------------------11--12--|   2 times
D|---------------------------------|
A|---------------------------------|
E|---------------------------------|

E|---------------------------------|
B|-8--8--8--10--8--8---------8-----|
G|--------------------9--10--------|   2 times
D|---------------------------------|
A|---------------------------------|
E|---------------------------------|

SOLO: this is also played earlier in the song.....play same 2 chords over it (d, c)
~~~~
E|------------------10--12--10-----------10--12--10-----------10--12--10--|
B|----------10--12---------------10--12---------------10--12--------------|
G|--11--12----------------------------------------------------------------|
D|------------------------------------------------------------------------|
A|------------------------------------------------------------------------|
E|------------------------------------------------------------------------|

E|-------------10--12--10---13--12--10---------------------------|
B|-----10--12---------------------------13--12-------------------|
G|-11-------------------------------------------14--12--11--14---|
D|---------------------------------------------------------------|
A|---------------------------------------------------------------|
E|---------------------------------------------------------------|

E|--13--12--10-----------------------------------------------|
B|--------------13--12---------------------------------------|
G|----------------------14--12--11--14-----------------------|
D|-----------------------------------------------------------|
A|-----------------------------------------------------------|
E|-----------------------------------------------------------|

E|-14--------------------------------------------------------|
B|----15-----------------------------------------------------|
G|-------14--12--11--12--11--12--11--14--12------------------|
D|------------------------------------------16--12-----------|
A|--------------------------------------------------14--12---|
E|-----------------------------------------------------------|

      The rest of the solo is just repeating earlier parts.

| /  slide up
| \  slide down
| h  hammer-on
| p  pull-off
| ~  vibrato
| +  harmonic
| x  Mute note
===============================================================================

            
            
Suggest correction
Creating personal tab
Creating personal tab
You can edit any tab online and save it as your Personal.

You can edit, replace or remove any tab part or add personal notes – all changes will be seen only by you.

Personal tabs can be accessed anytime from any device, even offline.
Learn more »
Give kudos to tab author, rate the tab!
1 2 3 4 5
comments
print report bad tab
2 comments total.
0 reply
stoopidhead 10 Sep 02, 2006 10:54 AM

good tab.. i think the solo is a little messed up tho

0 reply
jojobeasty 214 Sep 02, 2006 11:01 AM

i dont think so. but ill check it out again

guest
You may want to rate the tab now too:
select rating
Wanna post a correction for this tab? Suggest correction