Oops, an error
Loading. Please wait.

Closer To The Sun intro tab

version 1
version 1

Intro

Whole song

Interactive

23,709 views 21 this week
no commentswrite comment
1 2 3 4 5
x 4
add to favorites
×
Save as Personal and add changes to this tab that will be seen only by you. Learn more ›
×
You can save this tab as Personal to edit and correct it or add notes. All changes will be seen only by you. Learn more »
launch autoscroll
font size
0
reset
how to read this tab
guitar tuner
edit
Autoscroll
slow
fast
+/-
esc
set tempo
stop
Author
Difficulty
This is the intro for Closer to the Sun by Slightly Stoopid, i think this is one of the 
riffs out there so i had to do it as my first tab ever, hope you like it. There is 
intro on here, but this is one is alot more in depth.

Standard Tuning


e--3/-5-7p-------5-----5\--3--5p-----3--------3\-1-------------------|
b--3/-5----5-------5---5\--3----5p-----3------3\-1-------------------|
g--4/-6-----6--7p----6-6\--4-------4-----4----4\-2-------------------|
d--5/-7----------------7\--5---------------5--5\-3-------------------|
a--------------------------------------------------------------------|
E--------------------------------------------------------------------|

e-------3---------------3/--5----5-----------------------------------|
b-----1--1--------------1/--3---3-3----------------------------------|
g---0-----0-------------0/--0--0---0---------------------------------|
d----------2--0h2p0h2---2/--4-------4-0h4p0h4------------------------|
a-3---------3-----------3/--5-5------5-------------------------------|
E--------------------------------------------------------------------|

then just repeat it all over again and you got the intro.

Any comments or complaints please email me at porker0@juno.com

            
            
Suggest correction
Creating personal tab
Creating personal tab
You can edit any tab online and save it as your Personal.

You can edit, replace or remove any tab part or add personal notes – all changes will be seen only by you.

Personal tabs can be accessed anytime from any device, even offline.
Learn more »
comments
print report bad tab
guest
You may want to rate the tab now too:
select rating
Wanna post a correction for this tab? Suggest correction