Oops, an error
Loading. Please wait.

Closer To The Sun Tab

version 3
version 3

Whole song

Interactive

10,609 views 261 this week
7 commentsread comments
1 2 3 4 5
x 5
add to favorites
×
Save as Personal and add changes to this tab that will be seen only by you. Learn more ›
×
You can save this tab as Personal to edit and correct it or add notes. All changes will be seen only by you. Learn more »
save as personal
new!
launch autoscroll
font size
0
reset
how to read this tab
guitar tuner
Autoscroll
slow
fast
+/-
esc
set tempo
stop
Author
                        *Intro*
         A                G                C               D
e------------------------------------------------0------2h3---0-----0---|
B---2h3---0---0---------------0-------------0-------------------3-------|
G----------2--------------0-----0--------0----0-------------------2-----|
D-----------2----------0----0---------0h2--0----0-----0-----0-----------|
A-0-----0----------0h2---2-----------3----------------------------------|
E-----------------3-----------------------------------------------------|

         A                G                C               D
e------------------------------------------------0------2h3---0h2-------|
B---2h3---0---0---------------0-------------0---------------------0-----|
G----------2--------------0-----0--------0----0-------------------------|
D-----------2----------0----0---------0h2--0----0-----0-----0-----------|
A-0-----0----------0h2---2-----------3----------------------------------|
E-----------------3-----------------------------------------------------|

                        *Solo*

e|-(3/5)-7p5------------(5/3)-5p3--------------|
B|--3/5-----7p5----------5/3-----5p3-----------|
G|--4/6----------6h7p6—--6/4----------4h5p4----|
D|--5/7--------7---------7/5--------5----------|
A|---------------------------------------------|
E|---------------------------------------------|

e|-----3p1-------------------------0-3----5p3----------------------|
B|-3p1-----------------------------1/3-5p3---5p3-------------------|
G|--------0------------------------0-------------------------------|
D|------------2-0h2p0h2p0h2p0------2/4-----------4-0h4p0h4p0h4p0---| x2
A|----------3----------------------3/5----------5------------------|
E|-----------------------------------------------------------------|



lyrics:
         A                         G
If I think she beautiful, well that's for sure 
         C                         D
Give a little loving, but I still gon need some more, rob it
         A                         G 
Steal it from the rich and then give it to the poor
         C                         D
Telling everbody it don't matter anymore, she said
         A                         G
All I really needed was a friend like you
         C                         D 
Help me through and together we can change, but 
         A                         G
If I was to stay it wasn't for too long 
         C                         D
People sing the same song everywhere I'm going 
         A                         G
Closer to the sun and far from the moon 
         C                         D                    
People screaming out they gonna see me real soon, 
         A     G     C     D
they say oooo oooo oooo oooo

              *Solo*

Then Repeat Words Again





OR

intro
e|--------------------------------------------2h3p2p0---0h2----|
B|-2h3p2-2p0---0------------0-----------1-------------3--------|
G|------------2-2--------0---0-----0--0--0-----------2-2-------|
D|----------2----2-----0--------0h2-2--2-----0-----------------| x2
A|0-----0-----------0h2----2---3-----3-------------------------|
E|-----------------3-------------------------------------------|

e|------------------------------------2h3p2--0----0h2-----------|
B|--2h3p2-0--------0----------------1---------3-----------------|
G|--------------2-2--------0-------0--------2--2----------------|
D|---------------2--------0-2---0h2---0-------------------------|
A|-0---------0---------2h3----3-----3---------------------------|
E|------------------3-------------------------------------------|

solo
e|-----7p5--------------5p3-----------------3p1------------------|
B|--------7p5--------------5p3-----------3p1---------------------|
G|-4/6--------6h7p6—-6\4-------4h5p4-----------0-----------------|
D|-5/7-------7-------7\5------5------4\2---------2-0h2p0h2p0h2p0-|
A|-----------------------------------5\3--------3----------------|
E|---------------------------------------------------------------|

e|-0-3----5p3---------------------------------------------|
B|-1/3-5p3---5p3------------------------------------------|
G|-0------------------------------------------------------|
D|-2/4-----------4-0h4p0h4p0h4p0--------------------------| x2
A|-3/5----------5-----------------------------------------|
E|--------------------------------------------------------|
Suggest correction
comments
print report bad tab
7 comments total. Showing first comments.
0 reply
suchomski 73 Aug 21, 2009 11:11 AM

this tab is the real thin good job

0 reply
suchomski 73 Aug 21, 2009 11:11 AM

thing

+1 reply
LostBullet 248 Sep 03, 2009 06:39 PM

Close, but no cigar. The chord progressions are right, just not the notes. Also, the solo is a little off. Check out my Guitar Pro (version 4) for the tab of this song, that I feel, is (almost, if not) spot on.

guest
You may want to rate the tab now too:
select rating
Wanna post a correction for this tab? Suggest correction