Oops, an error
Loading. Please wait.

Collie Man intro tab

version 1
version 1

Intro

Whole song

Interactive

34,386 views 1 this week
2 commentsread comments
1 2 3 4 5
x 5
add to favorites
×
Save as Personal and add changes to this tab that will be seen only by you. Learn more ›
×
You can save this tab as Personal to edit and correct it or add notes. All changes will be seen only by you. Learn more »
launch autoscroll
font size
0
reset
how to read this tab
guitar tuner
edit
Autoscroll
slow
fast
+/-
esc
set tempo
stop
Collie Man -Everything You Need
Slighty Stoopid
tabbed by Dylan N

~ vibrato
h hammer on
b bend

1st guitar plays this throughout the song
e|-3-3-3--3-3-3--1-1-1------------------------------------------------------|
B|-3-3-3--2-2-2--1-1-1--1-1-1-----------------------------------------------|
G|-0-0-0--3-3-3--2-2-2--0-0-0-----------------------------------------------|
D|-0-0-0---------3-3-3--2-2-2-----------------------------------------------|
A|-2-2-2----------------3-3-3-----------------------------------------------|
E|-3-3-3--------------------------------------------------------------------|

2nd guitar plays this and slight variations of it
e|------3-----3-----------2-----2---------------1----1----------0-----------|
B|--------3-----3-----------3-----3---------------1----1----------1---------|
G|----------0-----0------------2-----2--------------2----2----------0-------|
D|-------------------(0)(0)---------------(3)-(3)------------(2)(2)---------|
A|--------------------------------------------------------------------------|
E|-3-3----------------------------------------------------------------------|

e|-0-------------------------------------------------------------------------|
B|---1-----------------------------------------------------------------------|
G|-----0---------------------------------------------------------------------|
D|---------------------------------------------------------------------------|
A|---------------------------------------------------------------------------|
E|---------------------------------------------------------------------------|

e|---------------------------------1-----1----------1-1-1-------0---0-------|
B|---------b3b3-----------------------1-----1-------1-1-1--1------1---1-----|
G|---------b2b2--------------------------2-----2-----------0---------0---0--|
D|---------------------------------------------------------2----------------|
A|---------------------------------------------------------3----------------|
E|-3-3----------------------------------------------------------------------|

e|------3-----3-----------2-----2---------------1----1----------0-----------|
B|--------3-----3-----------3-----3---------------1----1-----1----1---------|
G|----------0-----0------------2-----2--------------2----2---0------0-------|
D|-------------------(0)(0)---------------(3)-(3)------------2-------~~2----|
A|-----------------------------------------------------------3--------------|
E|-3-3----------------------------------------------------------------------|

e|----------------------2-----2---------------1----1----------0--------------|
B|-------------------------3-----3---------------1----1-----1----1-----------|
G|----------------------------2-----2--------------2----2---0------0---------|
D|-----------------(0)(0)---------------(3)-(3)-------------2-------~~2------|
A|----------------------------------------------------------3----------------|
E|-3-3-----------------------------------------------------------------------|

e|--1-1h3-1-------0---------------------------------------------------------|
B|--1-1---1---1-----1-------------------------------------------------------|
G|--------2---0-------0-----------------------------------------------------|
D|------------2--------~~2--------------------------------------------------|
A|------------3-------------------------------------------------------------|
E|--------------------------------------------------------------------------|
Suggest correction
Creating personal tab
Creating personal tab
You can edit any tab online and save it as your Personal.

You can edit, replace or remove any tab part or add personal notes – all changes will be seen only by you.

Personal tabs can be accessed anytime from any device, even offline.
Learn more »
comments
print report bad tab
2 comments total.
0 reply
Fieldhockey44 10 May 01, 2007 11:46 PM

the first guitar plays G Am F C throughout the song, instead of G D F C as you have it. the tabbing is otherwise good as far as i can see.

0 reply
violent.j.11 102 Mar 30, 2008 05:34 PM

It's actually not G D F C as you have it tabbed. You have it G D#7 F C. And that is just not correct. Like the user above me has stated, the progression is definitely G Am F C.

guest
Wanna post a correction for this tab? Suggest correction