Oops, an error
Loading. Please wait.

Collie Man tab

version 1
version 1

Whole song

Interactive

12,488 views 57 this week
2 commentsread comments
1 2 3 4 5
x 4
add to favorites
×
Save as Personal and add changes to this tab that will be seen only by you. Learn more ›
×
You can save this tab as Personal to edit and correct it or add notes. All changes will be seen only by you. Learn more »
launch autoscroll
font size
0
reset
how to read this tab
guitar tuner
edit
Autoscroll
slow
fast
+/-
esc
set tempo
stop
Difficulty
This is the Riff played the entire song. It’s Tabbed
 pretty good,it sounds close.The other tab of this
has a kinda messed up version of this.

        G            G                 Am        Am
e |-----3---------3--------3-------------------------|
B|-------3----------3------------1-------1-----1-----|
G|----------------------------------2-------2--------|
D|---------------------------------------------------|
A|----------------------------0-------0-----0--------|
E|--3-------3---------3------------------------------|

       F        F            C         C         C

e |------1-----1----- -----0--------0-------0------|
B|--------1-----1-----------1--------1-------1-----|
G|-------------------------------------------------|
D|---3------3--------------------------------------|
A|-----------------------3-------3-------3---------|
E|-------------------------------------------------|


and at the end of the riff sometimes it repeats
the end like at 00:21

        F       F                C         C
e |-------1-----1----- -----0--------0-------|
B|---------1-----1-----------1--------1------|
G|-------------------------------------------|
D----3------3--------------------------------|
A|------------------------3-------3----------|
E--------------------------------------------|

            
            
Suggest correction
Creating personal tab
Creating personal tab
You can edit any tab online and save it as your Personal.

You can edit, replace or remove any tab part or add personal notes – all changes will be seen only by you.

Personal tabs can be accessed anytime from any device, even offline.
Learn more »
comments
print report bad tab
2 comments total.
0 reply
Alvarez41 51 Mar 17, 2006 12:24 PM

the chords are right which is all that matters really

0 reply
Red Baron 40 Oct 23, 2006 04:00 PM

The chords are right, but the apreggios could use some work

guest
Wanna post a correction for this tab? Suggest correction