Oops, an error
Loading. Please wait.

Collie Man tab

version 2
version 2

Whole song

Interactive

8,945 views 12 this week
no commentswrite comment
1 2 3 4 5
x 3
add to favorites
×
Save as Personal and add changes to this tab that will be seen only by you. Learn more ›
×
You can save this tab as Personal to edit and correct it or add notes. All changes will be seen only by you. Learn more »
launch autoscroll
font size
0
reset
how to read this tab
guitar tuner
edit
Autoscroll
slow
fast
+/-
esc
set tempo
stop
----------------------------------------------------------------------------
                       Collie Man - Slightly Stoopid
----------------------------------------------------------------------------
Tabbed by: Badfishy
Tuning: Standard eBDGAE

This tab was orginally written by mooretsu. This is an edited tabe that i believe is 
accurate. I also
added the other tab that corrected mooretsu.

Guitar 1  -Intro
   G        Am             F        C
e|-----3p0--0-0-0-0-0-0-0--1-1-1-1--0---|
B|-----3p0--1-1-3-3-1-1-1--1-1-1-1--1---|
G|----------2-2-2-2-2-2-2--2-2-2-2--0---|  x3
D|-0-0------2-2-2-2-2-2-2--3-3-3-3--2---|
A|-2-2------0-0-0-0-0-0-0--0-0-0-0--3---|
E|-3-3----------------------------------|

at the end just strum the C chord as many times as in the song

This part is played the fourth time through after the intro is played 3 times. Its just
the last part of the intro. Listen to the song for where it is played.

Guitar 1
   G        Am             F        C  F        C
e|-----3p0--0-0-0-0-0-0-0--1-1-1-1--0--1-1-1-1--0----|
B|-----3p0--1-1-3-3-1-1-1--1-1-1-1--1--1-1-1-1--1----|
G|----------2-2-2-2-2-2-2--2-2-2-2--0--2-2-2-2--0----|
D|-0-0------2-2-2-2-2-2-2--3-3-3-3--2--3-3-3-3--2----|x1
A|-2-2------0-0-0-0-0-0-0--0-0-0-0--3--0-0-0-0--3----|
E|-3-3-----------------------------------------------|

Tabbing the second guitar note-for-note would be difficult, since what he's
doing is just improving with certain techniques and riffs I will tab a few
of the little riffs he plays throughout the song.

Intro
Guitar 2
e|-----3---------3-------3------------------------|
B|-------3---------3------------1------1-----1----|
G|--------------------------------2------2--------|
D|------------------------------------------------|
A|----------------------------0------0-----0------|
E|--3---------3--------3--------------------------|

       F        F            C         C         C

e|-------1-----1-----------0--------0-------0------|
B|--------1-----1-----------1--------1-------1-----|
G|-------------------------------------------------|
D|---3------3--------------------------------------|
A|-----------------------3-------3-------3---------|
E|-------------------------------------------------|


and at the end of the riff sometimes it repeats
the end like at 00:21 just like the intro repeats the F and C chord
at the end of the 4th time through.

        F       F                C         C
e|--------1-----1-----------0------0-------|
B|---------1-----1-----------1------1------|
G|-----------------------------------------|
D|----3------------------------------------|
A|------------------------3------3---------|
E|-----------------------------------------|

This is basically what guitar 1 is playing but arpeggiated, so keep that in
mind, this is repeated on and off throughout the song.


  Riff A      Riff B
e|-----3p0--||-----3p0-----| These two riffs are played on and off
B|--3h5-----||--3h5---0h1--| throughout the song.
G|----------||-------------| (examples: 0:17, 0:21, 0:23)
D|----------||-------------|
A|----------||-------------|
E|----------||-------------|

  Riff C
e|-3/5\3/5--| This is played during the section of the G chord at certain
B|-3/5\3/5--| times. (example: 0:11)
G|----------| It's probably an echo effect of the 3/5 slide but I tabbed it.
D|----------|
A|----------|
E|----------|

Riff D

e|-1/3-------3/5----5-------------------| This riff wasnt put in the original version of 
tabe but its played
B|----3-3h5-----5--6-5h6p5-5h6-8-6p5----| the second half of the song  4 times you will 
it played by the
G|--------------------------------------| second guitar.
D|--------------------------------------|
A|--------------------------------------|
E|--------------------------------------|

I agree with mooretsu that this is a great song. please edit my correction or tell me a 
of the song you think
is wrong and i'll take a second look at it and change it. Im not sure if the first pull 
in the intro
is the right notes but I know there is a pull off so feel free to IM me at Badfish238.


| /  slide up
| \  slide down
| h  hammer-on
| p  pull-off
| ~  vibrato
| +  harmonic
| x  Mute note
============================================================================

            
            
Suggest correction
Creating personal tab
Creating personal tab
You can edit any tab online and save it as your Personal.

You can edit, replace or remove any tab part or add personal notes – all changes will be seen only by you.

Personal tabs can be accessed anytime from any device, even offline.
Learn more »
Give kudos to tab author, rate the tab!
1 2 3 4 5
comments
print report bad tab
guest
Wanna post a correction for this tab? Suggest correction