Oops, an error
Loading. Please wait.

Come Around tab

584 views 3 this week
no commentswrite comment
1 2 3 4 5
2 more votes to show rating
add to favorites
×
Save as Personal and add changes to this tab that will be seen only by you. Learn more ›
×
You can save this tab as Personal to edit and correct it or add notes. All changes will be seen only by you. Learn more »
launch autoscroll
font size
0
reset
how to read this tab
guitar tuner
edit
Autoscroll
slow
fast
+/-
esc
set tempo
stop
Author
-------------------------------------------------------------------------------
                             Come Around - Slightly Stoopid
-------------------------------------------------------------------------------
Tabbed by: wattmalter

The only way I could figure out the intro/outro was to tune the 6th string down to Db 
and the rest of the strings are standard tuning. Send corrections if you hear something 
different, enjoy!

Tuning: Db A D G B e

Intro:
e|-------------------------------------|
B|-------------------------------------|
G|-------------------------------------|
D|-------------------------------------|
A|-------------------------------------|
D|--2--5--7--2p0----2--5--5/7-4\2-2p0--|

Verse: It sounds like they switch it up between the two bars below (including the 
chorus)- you be the judge.
Reggae Skank
e|--6--6--2--2--1--1--1--1---|  |--6--6--2--2--4--4--4--4--|
B|--7--7--2--2--2--2--2--2---|  |--7--7--2--2--6--6--6--6--|
G|--8--8--3--3--3--3--3--3---|  |--8--8--3--3--6--6--6--6--|
D|--8--8--4--4--3--3--3--3---|or|--8--8--4--4--6--6--6--6--|
A|--6--6--4--4--1--1--1--1---|  |--6--6--4--4--4--4--4--4--|
D|--------2--2---------------|  |--------2--2--------------|

Pre-chorus - Reggae Skank
e|--x--x--x--x--x--x--x--x--|
B|--x--x--x--x--x--x--x--x--|
G|--x--x--x--x--x--x--x--x--|
D|--x--x--x--x--x--x--x--x--|
A|--------------------------|
D|--------------------------|

Chorus: Guitar 1
e|------------------------|    |-----------------------|
B|------------------------|    |-----------------------|
G|------------------------|    |--/8~----/11~----/15~--|
D|--/13~----/16~----/20~--| or |-----------------------|
A|------------------------|    |-----------------------|
D|------------------------|    |-----------------------|

Chorus: Guitar 2 - Reggae Skank
e|--6--6--2--2--1--1--1--1---|  |--6--6--2--2--4--4--4--4--|
B|--7--7--2--2--2--2--2--2---|  |--7--7--2--2--6--6--6--6--|
G|--8--8--3--3--3--3--3--3---|  |--8--8--3--3--6--6--6--6--|
D|--8--8--4--4--3--3--3--3---|or|--8--8--4--4--6--6--6--6--|
A|--6--6--4--4--1--1--1--1---|  |--6--6--4--4--4--4--4--4--|
D|--------2--2---------------|  |--------2--2--------------|

Bridge: Ska strumming
e|--6-6------4-4------4-4------2-2--|
B|--7-7------6-6------4-4------2-2--|
G|--8-8(x4)--6-6(x4)--4-4(x4)--3-3--|(x4)
D|--8-8------6-6------6-6------4-4--|
A|--6-6------4-4------6-6------4-4--|
D|--------------------4-4------2-2--|

Outro:
e|----------------------------------------|
B|----------------------------------------|
G|----------------------------------------|
D|----------------------------------------|
A|----------------------------------------|
D|--2--5--7--2p0----2--5--5/7-4\2-2p0~--3\|

Enjoy, blaze one :)

************************************

| /   slide up
| \   slide down
| h   hammer-on
| p   pull-off
| ~   vibrato
| +   harmonic
| x   Mute note
| b   Bend
| pb  Pre-bend
| br  Bend release
| pbr Pre-bend release
| brb Bend release bend

************************************

            
            
Suggest correction
Creating personal tab
Creating personal tab
You can edit any tab online and save it as your Personal.

You can edit, replace or remove any tab part or add personal notes – all changes will be seen only by you.

Personal tabs can be accessed anytime from any device, even offline.
Learn more »
Give kudos to tab author, rate the tab!
1 2 3 4 5
comments
print report bad tab
guest
You may want to rate the tab now too:
select rating
Wanna post a correction for this tab? Suggest correction