Oops, an error
Loading. Please wait.

Ese Loco Tab

version 2
version 2

Whole song

1,101 views 1 this week
no commentswrite comment
1 2 3 4 5
2 more votes to show rating
add to favorites
launch autoscroll
font size
0
reset
how to read this tab
guitar tuner
Autoscroll
slow
fast
+/-
esc
set tempo
stop
Help us to improve Ultimate-Guitar.com Take our survey!
×
This is a good song, pretty easy and the intro is the only part that might be difficult 
get the hang of
i guess...

x-palm mute (every thing else is not muted)
p-peel off
/-slide up
slide down

intro:
E------------------------------------------------------------------------|
B---9------------------7-8p7---------------9-10p9---------------7--------|
G----9-------6-7p6-----7----7----8-9p8-----9-----9----6-7p6-----7--------|
D--9---------7----7----7-----7---9----9----9------9---7----7----7--------|
A-7----------7-----7---5------5--9-----9---7-------7--7-----7---5--------|
E------------5------5------------7------7-------------5------5-----------|


verse (1):
--------------------------------------------|
--9--9--------7--7--------9--9--------7~~~~-|
--9--9--6--6--7--7--8--8--9--9--6--6--7~~~~-|
--9--9--7--7--7--7--9--9--9--9--7--7--7~~~~-|
--7--7--7--7--5--5--9--9--7--7--7--7--5~~~~-|
--------5--5--------7--7--------5--5--------|

chorus:
---------------------------------|
---------------------------------|
--9--8--8--6---------------------|
--9--8or9--6----7-7--777--9-9-9--|
--7--6--6--4----7-7--777--9-9-9--|
----------------5-5--555--7-7-7--|
                x x  xxx  x x


verse (2):
----------------------------------------------|
----------------------------------------------|
--9-9-9---------7-7-7-------------------------|
--9-9-9--7-7-7--7-7-7--9-9-9------------------|
--7-7-7--7-7-7--5-5-5--9-9-9------------------|
---------5-5-5---------7-7-7------------------|

then chorus reapeats

then the verse (1) repeats

then verse (1) again with different strumming

chorus

then the fisrt 2 chords of verse (2)...
then this crazy little
G--7-/-8--7-----------------------|
D--7-/-8--7--7--------------------|
A--5-/-6--5--7--------------------|
E-------------5-------------------|
Suggest correction
Give kudos to tab author, rate the tab!
1 2 3 4 5
comments
print report bad tab
guest
You may want to rate the tab now too:
select rating
Wanna post a correction for this tab? Suggest correction