Oops, an error
Loading. Please wait.

Girl You Is So Fine tab

14,121 views 3 this week
1 commentread comment
1 2 3 4 5
x 11
add to favorites
×
Save as Personal and add changes to this tab that will be seen only by you. Learn more ›
×
You can save this tab as Personal to edit and correct it or add notes. All changes will be seen only by you. Learn more »
launch autoscroll
font size
0
reset
how to read this tab
guitar tuner
edit
Autoscroll
slow
fast
+/-
esc
set tempo
stop
Author
-------------------------------------------------------------------------------
                 GIRL YOU IS SO FINE – Slightly Stoopid
-------------------------------------------------------------------------------
Tabbed by: nonpoint42
Email:

Tuning:standard

   Intro/verse this is what he plays the first time. It varies slightly throughout the 
but stays with the same chords.
e|---------------------------------------------0-----------------------------|
B|----1-----1-----1------1-----------1---------1--------1--------------------|
G|--2--2-0---0---------------------0---0---------0---0-----------------------|
D|---------------3---3-2---2-----2-------2---------2-------------------------|
A|-------------------------------3-------------------------------------------|
E|---------------------------------------------------------------------------|

e|----------------------------------------------/5-3---------------------------|
B|---------------------1----------------3-----------3--------------------------|
G|------0-----0-----2---2---------------0------------2-3-4---------------------|
D|----2-----0-----2-------2--------0------0------------------------------------|
A|--3-----2-----0--------------0h2---------------------------------------------|
E|-----------------------------3-----------------------------------------------|

e|---------1-------/5--3----------1------------3p0------------------------------|
B|-------1--1------------3-------1---1—3p1------3p1-----------------------------|
G|-----2------2------------------2---0-------------------0h2--------------------|
D|---3---------------------------3---2------------------------0h2---0h2-0h2-----|
A|------------------------------------3------------------------------3----------|
E|------------------------------------------------------------------------------|

  The little break between verses goes like this
e|------8--------8------8------8-------8----8---8---8---------------------------|
B|--10---10-8----8-6---6-5----5---8---8---8---8---------------------------------|
G|-----------------------------------9---9---9---9------------------------------|
D|------------------------------------------------------------------------------|
A|------------------------------------------------------------------------------|
E|------------------------------------------------------------------------------|

e|------------------------------------------------------------------------------|
B|-----------------------------------10-----------------------------------------|
G|--------------------------------10---10---------9-----------------------------|
D|---10----9----7----5------10---------10-----10--------------------------------|
A|---------------------------8-------------------10-----------------------------|
E|------------------------------------------------8-----------------------------|


There are at least 2 guitars in the second half of the song.
An acoustic guitar plays this riff on the c chord throughout:
e|---------------------------------------------------------------------------|
B|---------------------------------------------------------------------------|
G|---------------------------------------------------------------------------|
D|---2--2--------------------------------------------------------------------|
A|---3--3---------3h5p3------------------------------------------------------|
E|-----------3h5-------------------------------------------------------------|
   While an electric guitar plays this
 e|-----------------------------------------------------------------------------|
B|------------------------------------------------------------------------------|
G|--5----3----------------------------------------------------------------------|
D|------------7---5--3---2h3-2h3-2h3-2------------------------------------------|
A|--------------------------------------------3---------------------------------|
E|------------------------------------------------------------------------------|
   This is the fill played every now and then:
e|-----------------------------------------------------------------------------|
B|---10p8----------------------------------------------------------------------|
G|---------9—9p7---------------------------------------------------------------|
D|-------------------10--------------------------------------------------------|
A|-----------------------------------------------------------------------------|
E|-----------------------------------------------------------------------------|
  Those parts are played the whole time
   Then there is the solo.
   Play this twice:
e|------------------------------------------------------------------------------|
B|------------------------------------------------------------------------------|
G|---9--------9-9-9-9--9--------------------------------------------------------|
D|------10-----------------10---------------------------------------------------|
A|------------------------------------------------------------------------------|
E|------------------------------------------------------------------------------|
   Second part
e|------------------------------------------------------------------------------|
B|------------------------------------------------------------------------------|
G|-9------9-10-12-10-9h10p9-----9-----------------------------------------------|
D|---10---------------------------12----12-10-----------------------------------|
A|------------------------------------------------------------------------------|
E|------------------------------------------------------------------------------|

e|------------------------------------------------------------------------------|
B|-----------------------------------13-13h15p13---13-13h15p13--13-15b----------|
G|----------------------------12-14----------------14----------------14---------|
D|--10h12p10---10-12/14---------------------------------------------------------|
A|--------------12--------------------------------------------------------------|
E|------------------------------------------------------------------------------|

e|-------------------------------------------------------------------------------|
B|-15b-r-p13-15-13----15-b-r—p13------13-----------------------------------------|
G|------------------------------------------14----14-----------------------------|
D|-------------------------------------------------------------------------------|
A|-------------------------------------------------------------------------------|
E|-------------------------------------------------------------------------------|

e|------------------------------------------------------------------------------|
B|------------------------------------------------------------------------------|
G|-12h14p12---12----------------12----------------------------------------------|
D|-------------14---14-12-12h14---14-12h14—10h12--10----------------------------|
A|------------------------------------------------------------------------------|
E|------------------------------------------------------------------------------|

e|---------------------------------------------------------------------------|
B|---------------------------------------------------------------------------|
G|---------------------------------------------------------------------------|
D|---------------------------------------------------------------------------|
A|---------------------------------------------------------------------------|
E|---------------------------------------------------------------------------|

| /  slide up
| \  slide down
| h  hammer-on
| p  pull-off
| ~  vibrato
| +  harmonic
| x  Mute note
b  bend
r  release

            
            
Suggest correction
Creating personal tab
Creating personal tab
You can edit any tab online and save it as your Personal.

You can edit, replace or remove any tab part or add personal notes – all changes will be seen only by you.

Personal tabs can be accessed anytime from any device, even offline.
Learn more »
comments
print report bad tab
1 comment total.
0 reply
Pizza Truck 10 Feb 22, 2009 05:03 PM

Yo it aint perfect but at least it's something to play. Thanks dude.

guest
You may want to rate the tab now too:
select rating
Wanna post a correction for this tab? Suggest correction