Oops, an error
Loading. Please wait.

Jedi bass

3,128 views 3 this week
2 commentsread comments
1 2 3 4 5
1 last vote to show rating
add to favorites
×
Save as Personal and add changes to this tab that will be seen only by you. Learn more ›
×
You can save this tab as Personal to edit and correct it or add notes. All changes will be seen only by you. Learn more »
launch autoscroll
font size
0
reset
guitar tuner
edit
Autoscroll
slow
fast
+/-
esc
set tempo
stop
Song: Jedi
Artist: Slightly Stoopid
Album: Longest Barrel Ride
Tabbed By: ADRA (d_abernathy20@hotmail.com)


This whole song consists of only one line, repeated over and over. 
Here it is.

\= slide down

G|------------------------|
D|------------------------|
A|-----------6666-6-6-4-6-|  X3
E|-4-444-4\0--------------|

G|--------------------|
D|-----4--------------|
A|-555---5-6-7--------|  X1
E|-------------55-6-7-|


Again, you just keep playing this the whole song. I am not as sure
about the second part, but that is the general form. If you have 
any questions or comments, e-mail me at d_abernathy20@hotmail.com.
Enjoy.

            
            
Suggest correction
Creating personal tab
Creating personal tab
You can edit any tab online and save it as your Personal.

You can edit, replace or remove any tab part or add personal notes – all changes will be seen only by you.

Personal tabs can be accessed anytime from any device, even offline.
Learn more »
Give kudos to tab author, rate the tab!
1 2 3 4 5
comments
print report bad tab
2 comments total.
0 reply
rufiodies 53 Apr 05, 2015 12:37 AM

Pretty much right, he sometimes goes up an octave to the 6th fret on the D string and plays an extra note or two when he does that, not 100 percent on the extra notes, but he does go up an octave for sure.

---------------------------------------------------------------
-----------------------666-6-6---------------------------------
--------666-6-66-5-7---------666-6-66-5-7---------666-6-66-5-7-
-44-4-4-------------------------------------444-4-4------------

Last part is
-------------------865--|
---3p4p3--346--568----8-|
-4-------4----6---------|
------------------------|

"I knew a crack dealer by the name of peter! Had to bust his ass with my 9 millimeter!" (best version imo)

0 reply
rufiodies 53 Apr 05, 2015 05:03 PM

I screwed up above, its A -666-6-66-4-6- not -5-7- Mental dysentery right there lol

guest
Wanna post a correction for this tab? Suggest correction