Oops, an error
Loading. Please wait.

Mellow Mood solo tab

version 1
version 1

Solo

Whole song

9,586 views 1 this week
1 commentread comment
1 2 3 4 5
1 last vote to show rating
add to favorites
×
Save as Personal and add changes to this tab that will be seen only by you. Learn more ›
×
You can save this tab as Personal to edit and correct it or add notes. All changes will be seen only by you. Learn more »
launch autoscroll
font size
0
reset
how to read this tab
guitar tuner
edit
Autoscroll
slow
fast
+/-
esc
set tempo
stop
Author
 MELLOW MOOD SOLO
  SLIGHTLY STOOPID
     MOPTOP
aight. im not compleytley sure on this because i fig. it out of the video on youtube.com 
u only get a few glimpeses at the fretboard.

PLEASE RATE OR IF U KNOW HOWS ITS PLAYED TELL ME SO I CAN CHANGE IT

   i brok it dowsn into segments so its easier
     ITS NOT PERFECT TIMING AND ALSO NOT PERFECT ON
           HOW MANY TIEMS EACH THING IS PLAYED
---comes in after G. Love is done singin-----------|
 e|------------------------------------------------|
 b|------------------------------------------------|
 g|-------12------12------12------12------12-------|
 d|--12h14---12h14---12h14---12h14---12h14---------|
 a|------------------------------------------------|
 e|------------------------------------------------|
     then he switches it up like this
 e|-----------------------------------------------------------------|
 b|------------------------------------------121212-12h13p12--------|
 g|--12------12------12------12-------------------------------14--12|
 d|----14p12---14p12---14p12---14p12--------------------------------|
 a|-----------------------------------------------------------------|
 e|-----------------------------------------------------------------|
        then goes right into tis rundown thing *not sure about the ending*
 e|------15p12--------------------------|
 b|------------15p12-----12-------------|
 g|-------------------14-----14--12-----|
 d|-------------------------------------|
 a|-------------------------------------|
 e|-------------------------------------|

 again after the 15p12's on the e and b im get completely
 lost so if u know wats played ther put it inthe comments

            
            
Suggest correction
Creating personal tab
Creating personal tab
You can edit any tab online and save it as your Personal.

You can edit, replace or remove any tab part or add personal notes – all changes will be seen only by you.

Personal tabs can be accessed anytime from any device, even offline.
Learn more »
Give kudos to tab author, rate the tab!
1 2 3 4 5
comments
print report bad tab
1 comment total.
0 reply
ddodd93 10 Jan 17, 2015 06:34 PM

The last line should be this:

e|------15p12----------------------------------|
b|-------------15p12--15p12--------------------|
g|----------------------------14p12--14p12-----|
d|---------------------------------------------|
a|---------------------------------------------|
e|---------------------------------------------|

At least that's what I hear

guest
You may want to rate the tab now too:
select rating
Wanna post a correction for this tab? Suggest correction