Oops, an error
Loading. Please wait.

Mellow Mood Tab

version 1
version 1

Whole song

25,618 views 27 this week
4 commentsread comments
1 2 3 4 5
1 last vote to show rating
add to favorites
launch autoscroll
font size
0
reset
how to read this tab
guitar tuner
Autoscroll
slow
fast
+/-
esc
set tempo
stop
Help us to improve Ultimate-Guitar.com Take our survey!
×
Author
Difficulty
novice
This is from the Acoustic Roots version, and this is just the basic riff for the rythem 
Ill add the lead when I figure it out, but since nobody else has added this, here it is.

e|------------------------------------------------3---|
B|------------------------------------------------3---|
G|----------0-------------7----------0------------0---|
D|----------0H2--------2>4--------0H2-----2>4-----0---|
A|-2--22-2--3---22--2--3>5--22-2--3----2--3>5--2--2---|
E|-3--33-3------33--3-------33-3-------3-------3--3---|

This is my first tab, so if its a little off, sorry, firgure it out yourself and comment 
it.
Suggest correction
Give kudos to tab author, rate the tab!
1 2 3 4 5
comments
print report bad tab
4 comments total. Showing first comments.
0 reply
Lixeno 100 Nov 16, 2007 12:59 PM

------ ------
----3- ------
------ instead of ----7- makes it easier
-2>4--
-2>4--
-3>5-- -3>5--
------ ------

0 reply
Lixeno 100 Nov 16, 2007 01:01 PM

sorry, post got ruined

------
----3-
------
-2>4--
-3>5--
------

Makes it easier to just slide C

0 reply
oipunk 10 Jun 12, 2009 08:36 PM

this tab is very off

guest
You may want to rate the tab now too:
select rating
Wanna post a correction for this tab? Suggest correction