Oops, an error
Loading. Please wait.

Mr Music bass

1,407 views 1 this week
1 commentread comment
1 2 3 4 5
2 more votes to show rating
add to favorites
×
Save as Personal and add changes to this tab that will be seen only by you. Learn more ›
×
You can save this tab as Personal to edit and correct it or add notes. All changes will be seen only by you. Learn more »
launch autoscroll
font size
0
reset
guitar tuner
edit
Autoscroll
slow
fast
+/-
esc
set tempo
stop
Author
Difficulty
-------------------------------------------------------------------------------
			     Mr Music - Slightly Stoopid
-------------------------------------------------------------------------------

Tabbed By : Croady
e-mail: Croady@yahoo.com

Tuning: Standard

This is a awsome cover of a upsetters song their version is the same but its in Bb 
instead anyway really easy and fun bassline.


G|---------------------------------------------------------------------------|
D|-----------------5555--------------------77777-----------------------------|
A|----0-2-0-----3--------------0-2-0----5------------------------------------|
E|--3--------3---------------3-----------------------------------------------|

            
            
Suggest correction
Creating personal tab
Creating personal tab
You can edit any tab online and save it as your Personal.

You can edit, replace or remove any tab part or add personal notes – all changes will be seen only by you.

Personal tabs can be accessed anytime from any device, even offline.
Learn more »
Give kudos to tab author, rate the tab!
1 2 3 4 5
comments
print report bad tab
1 comment total.
0 reply
Rootsmusic 263 Jun 01, 2016 05:22 AM

I think this is the correct tab

G|-------------------------|-------------------------|
D|--------------5------5---|--------------7------7---|
A|---0-2-0---3----3333---3-|---0-2-0----5---5555-----|
E|-3-------3---------------|-3-------3---------------|

guest
You may want to rate the tab now too:
select rating
Wanna post a correction for this tab? Suggest correction