Oops, an error
Loading. Please wait.

No Cocaine bass

6,303 views 36 this week
1 commentread comment
1 2 3 4 5
x 5
add to favorites
×
Save as Personal and add changes to this tab that will be seen only by you. Learn more ›
×
You can save this tab as Personal to edit and correct it or add notes. All changes will be seen only by you. Learn more »
launch autoscroll
font size
0
reset
guitar tuner
edit
Autoscroll
slow
fast
+/-
esc
set tempo
stop
Author
Difficulty
SLIGHTLY STOOPID - NO COCAINE
-------------------------------------------------------------------------------
Tabbed by - nick1097
-------------------------------------------------------------------------------

Ok, so here is the bulk of the song for 'No Cocaine' by Slightly Stoopid.

I had to tab this out for my bass player to learn so I figured I'd post it up for anyone 
that needs it..

Mind you I didn't do the entire song.. The rest is pretty self explanatory.

The spacing between riffs is unimportant. Just listen to the song. I put in a couple 
phrases so it wouldn't be as hard to get lost..

-----------------------------------------------------------------------------

Tab Legend: \slide down


G |------------------------------------------------------|
D |4-2-----------------4-2-------------------------------|
A |----4-2-----------------4-2---------------------------|
E |--------2--------9\---------2-------------------------|


G |------------------------------------------------------|
D |4-2------------------------------------4-2------------|
A |----4-2------------------------------------4-2--------|
E |--------4--------------------------------------2------|
      0:47 (Cuh we dont need...)

G |------------------------------------------------------|
D |---4-2------------------------4-2---------------------|
A |-------4-2------------------------4-2-----------------|
E |9\---------2--------------------------2---------------|


G |------------------------------------------------------|
D |------4-2-------------------------------4-2-----------|
A |----------4-2-------------------------------4-2-------|
E |9\-9\---------2---------------------------------2-----|
	     1:11 (Cuh we someone...)

G |------------------------------------------------------|
D |4-2----------------------------4-2--------------------|
A |----4-2----------------------------4-2----------------|
E |--------2------------------------------2--------------|


G |------------------------------------------------------|
D |------------------------------------------------------|
A |------------------------------------------------------|
E |9/-2-22-2222-----------------2--22222-----------------|
     1:34 (So put your love..)

G |------------------------------------------------------|
D |4-2----------------------------4-2--------------------|
A |----4-2----------------------------4-2----------------|
E |--------2------------------------------2--------------|


G |------------------------------------------------------|
D |4-2----------------------------4-2--------------------|
A |----4-2----------------------------4-2----------------|
E |--------2------------------------------2--------------|


G |------------------------------------------------------|
D |4-2----------------------------4-2--------------------|
A |----4-2----------------------------4-2----------------|
E |--------2------------------------------2--------------|
      2:09 (Cuh we dont need...)

G |------------------------------------------------------|
D |4-2---------------------------------------------------|
A |----4-2-----------------------------------------------|
E |--------2--------------------9\-2-222222--------------|
 				    2:25 (Talking bout the herbs..)

G |------------------------------------------------------|
D |-------------------------------4-2--------------------|
A |-----------------------------------4-2----------------|
E |2-2222-2222----------------------------2--------------|


G |------------------------------------------------------|
D |---4-2------------------------4-2---------------------|
A |-------4-2------------------------4-2-----------------|
E |9\---------2--------------------------2---------------|

            
            
Suggest correction
Creating personal tab
Creating personal tab
You can edit any tab online and save it as your Personal.

You can edit, replace or remove any tab part or add personal notes – all changes will be seen only by you.

Personal tabs can be accessed anytime from any device, even offline.
Learn more »
comments
print report bad tab
1 comment total.
0 reply
liltrip44 10 Mar 17, 2014 10:40 AM

thanks for the tab.... at the 0:47 mark is it really 4-2-4-2-4 or is that a typo i tried listening for it but i guess i cant hear it lol maybe i shouldnt be playin if i cant lol

guest
You may want to rate the tab now too:
select rating
Wanna post a correction for this tab? Suggest correction