Oops, an error
Loading. Please wait.

Officer tab

version 4
version 4

Whole song

13,447 views 18 this week
no commentswrite comment
1 2 3 4 5
x 10
add to favorites
×
Save as Personal and add changes to this tab that will be seen only by you. Learn more ›
×
You can save this tab as Personal to edit and correct it or add notes. All changes will be seen only by you. Learn more »
launch autoscroll
font size
0
reset
how to read this tab
guitar tuner
edit
Autoscroll
slow
fast
+/-
esc
set tempo
stop
Difficulty
Slightly Stoopid - Officer

Released on 'Everything You Need' (2003, Skunk-Records)


Tapped by:  Peyre
Tuning:     standart


Intro (Guitar 1, Dig. delay)

E|------0h2h4(x4)-----0h4h5-(x4)----0h5h7-(x4)-----0h4h5-(x4)-|
B|------------------------------------------------------------|
G|------------------------------------------------------------| (x2)
D|------------------------------------------------------------|
A|------------------------------------------------------------|
E|------------------------------------------------------------|


Riff (Guitar 1, Dig. Delay) 

Isn't played throughout the whole song i guess, but can be varied with some jamming.

e|--------4-4~-----5-5~-----7-7~-----5-5~----------------------|
B|-------------------------------------------------------------|
G|-------------------------------------------------------------|
D|-------------------------------------------------------------|
A|-------------------------------------------------------------|
E|-------------------------------------------------------------|


Cords (Guitar 2, reggae-strumming)

It's always the same thing during the entire song, i figure.
Check Youtube for some live footage of how Kyle Mcdonald plays it.

         E         A         B         A    
 
e|-------7---------5---------7---------5----------------------| 
B|-------9---------5---------7---------5----------------------| 
G|-------9---------6---------8---------6----------------------|
D|-------9---------7---------9---------7----------------------| 
A|-------7---------7---------9---------7----------------------| 
E|-------0---------5---------7---------5----------------------|


Bass (\ = slide down) 

This is basically played all the time except for some part after the Chorus.

G|-------------------------------------| 
D|----------999977---------------------|
A|-------77------------9999--------777-|
E|-------------------7------7\5-55-----|

After the Chorus ('Can't take the pressure for long...') the Bass plays this: 

G|---------------------| 
D|---------------------|
A|-------7-------------| (4x)
E|---------5--7--5-----|


Lyrics

(Verse)
It all started late on a Saturday night
Said who's got the spliffs and who's got the pint
Look out the window said to my surprise
Here comes the man in blue and his flashing lights
He said, Now you know your party's fuckin' over with
Because ya smokin' joints and your rollin' spliffs
Now tell me whatcha think I ought to think of this
Say wantcha pull out your sack, I say or you will be missed

(Pre-Chorus)
Say now, Mr.Officer, come charge me all the time
You got me for possession but I swear that it's not mine
No matter what you do or say, it's bound to come right back this way
And if you want a moment's please say this is what you'll say
C'mon an' let's get this party started until the break of dawn
An' let's keep this party movin' until there's no holdin'
An' let's get this party started until the break of dawn
An' let's keep this party movin', all you've got to do is sing

(Chorus)
Can't take the pressure for long
All they wanna do is rock 'til after 2
Gettin' high, then they singin' this song
Snap another B and drink another brew
Said, they can't take the pressure for long
All I wanna do is rock 'til after 2
Gettin' high then they singin' this song
Snap another B then drink another brew, c'mon

(Verse)
[Incomprehensible] roadblock but me so sorry Mr.Cop
I bet you anything me gonna get stopped
[Incomprehensible] roadblock but me so sorry Mr.Cop
I bet you anything me gonna get stopped, I want yo
Hey, Mr.Cop said, Now why'd you stoppa me, na na
I wasn't driving me car badly
I said, Don’t go lock me up because me smoke sensi
Yes, this is the ghetto but me live cross the sea


(Pre-Chorus)
Say now, Mr.Officer, come charge me all the time
You got me for possession but I swear that it's not mine
No matter what you do or say, it's bound to come right back this way
And if you want a moment's please say this is what you'll say
C'mon an' let's get this party started until the break of dawn
An' let's keep this party movin' until there's no holdin'
An' let's get this party started until the break of dawn
An' let's keep this party movin', all you've got to do is sing

(Chorus x2, fade out)
Can't take the pressure for long
All they wanna do is rock 'til after 2
Gettin' high, then they singin' this song
Snap another B and drink another brew
Said, they can't take the pressure for long
All I wanna do is rock 'til after 2
Gettin' high then they singin' this song
Snap another B then drink another brew, c'mon

            
            
Suggest correction
Creating personal tab
Creating personal tab
You can edit any tab online and save it as your Personal.

You can edit, replace or remove any tab part or add personal notes – all changes will be seen only by you.

Personal tabs can be accessed anytime from any device, even offline.
Learn more »
comments
print report bad tab
guest
Wanna post a correction for this tab? Suggest correction