Oops, an error
Loading. Please wait.

Open Road ukulele

207 views 1 this week
no commentswrite comment
1 2 3 4 5
2 more votes to show rating
add to favorites
×
Save as Personal and add changes to this tab that will be seen only by you. Learn more ›
×
You can save this tab as Personal to edit and correct it or add notes. All changes will be seen only by you. Learn more »
launch autoscroll
font size
0
reset
transpose
0
reset
display chords
guitar tuner
edit
Autoscroll
slow
fast
+/-
esc
set tempo
stop
Difficulty
intermediate
Strumming
There is no strumming pattern for this song yet. and get +5 IQ
THIS IS A AWESOME ACOUSTIC SONG!
No one has tabbed the whole song yet so here it is.
I borrowed the intro from the other tab.


Intro guitar 1 (play through whole song)
     C            G         D
e|------0--0--0-----3/5\3--2--2-2-3-2-0-2------|
B|------1--1--1-----3/5\3--3--3-3-3-3-3-3------|
G|------0--0--0-----0------2--2-2-2-2-2-2------|
D|------2--2--2-----0--------------------------|
A|-0h3--3--3--3--2-----------------------------|
E|---------------3-----------------------------|



Intro 2nd guitar (0:19)
 you will have to figure our stum pattern by yourself
e|-8-8-8-8--7-7-7--10-10-10^12p10--10^12--12/15/12--|
B|-8-8-8-8--8-8-8--10-10-10------10-----10----------|
G|-9-9-9-9--7-7-7--11-11-11------11-----11----------|
D|--------------------------------------------------|
A|--------------------------------------------------|
E|--------------------------------------------------|

e|-8-8-8-8--7-7-7--10-10-10^12-----------------------|
B|-8-8-8-8--8-8-8--10-10-10---10---------------------|
G|-9-9-9-9--7-7-7--11-11-11---11^12-9^11p9-----------|
D|----------------------------------------12---------|
A|--------------------------------------------9------|
E|---------------------------------------------12p10-|

e|----------------2-3/14-14-14-14-14-----------------|
B|----------------3-3/15-15-15-15-15-----------------|
G|-----0----------2-2/14-14-14-14-14-----------------|
D|--0^2---------0------------------------------------|
A|-3---------0^2-------------------------------------|
E|----------3----------------------------------------|

e|-----------------2-2-2-2-2-2----|
B|-----------------3-3-3-3-3-3----|
G|-----0-----------2-2-2-2-2-2----|
D|--0^2---------0-----------------|
A|-3---------0^2------------------|
E|----------3---------------------|


When the singing starts, keep plain 1st guitar intro
2nd guitar plays this
e|-8-8-8-8--7-7-7--10-10-10-10-10-10-------|
B|-8-8-8-8--8-8-8--10-10-10-10-10-10-------|
G|-9-9-9-9--7-7-7--11-11-11-11-11-11-------| 
D|-----------------------------------------| 4X
A|-----------------------------------------|
E|-----------------------------------------|

e|----------------2-3/14-14-14-14-14-------|
B|----------------3-3/15-15-15-15-15-------|
G|-----0----------2-2/14-14-14-14-14-------| 4X  Only play the the really
D|--0^2---------0--------------------------|     high notes on the 2nd and
A|-3---------0^2---------------------------|     4th time around
E|----------3------------------------------|


CHORUS

e|-8-8-8-8--7-7-7--10-10-10-10-10-10-------|
B|-8-8-8-8--8-8-8--10-10-10-10-10-10-------|
G|-9-9-9-9--7-7-7--11-11-11-11-11-11-------| 
D|-----------------------------------------| 
A|-----------------------------------------|
E|-----------------------------------------|

e|-8-8-8-8--7-7-7--10-10-10^12------------|
B|-8-8-8-8--8-8-8--10-10-10---10^12-------|
G|-9-9-9-9--7-7-7--11-11-11---------11----|
D|----------------------------------------| 2X
A|----------------------------------------|
E|----------------------------------------|

e|-8-8-8-8--7-7-7--10-10-10-10-10-10-------|
B|-8-8-8-8--8-8-8--10-10-10-10-10-10-------|
G|-9-9-9-9--7-7-7--11-11-11-11-11-11-------| 
D|-----------------------------------------| 
A|-----------------------------------------|
E|-----------------------------------------|


2nd VERSE

e|----------------2-2-2-3-2-0-2-2----------|
B|----------------3-3-3-3-3-3-3-3----------|
G|-----0----------2-2-2-2-2-2-2-2----------|   
D|--0^2---------0--------------------------|     
A|-3---------0^2---------------------------|     
E|----------3------------------------------|

e|----------------2-3/14-14-14-14-14-------|
B|----------------3-3/15-15-15-15-15-------|
G|-----0----------2-2/14-14-14-14-14-------|
D|--0^2---------0--------------------------|
A|-3---------0^2---------------------------|
E|----------3------------------------------|

e|----------------2-2-2-3-2-0-2-2----------|
B|----------------3-3-3-3-3-3-3-3----------|
G|-----0----------2-2-2-2-2-2-2-2----------|   
D|--0^2---------0--------------------------|     
A|-3---------0^2---------------------------|     
E|----------3------------------------------|

e|----------------2-3/14-14-14-14-14-------|
B|----------------3-3/15-15-15-15-15-------|
G|-----0----------2-2/14-14-14-14-14-------|
D|--0^2---------0--------------------------|
A|-3---------0^2---------------------------|
E|----------3------------------------------|

e|-8-8-8-8--7-7-7--10-10-10-8-10-8-10-------|
B|-8-8-8-8--8-8-8--10-10-10-8-10-8-10-------|
G|-9-9-9-9--7-7-7--11-11-11-9-11-9-11-------| 
D|------------------------------------------|
A|------------------------------------------|
E|------------------------------------------|

e|----------------2-2-2-3-2-0-2-2----------|
B|----------------3-3-3-3-3-3-3-3----------|
G|-----0----------2-2-2-2-2-2-2-2----------|   
D|--0^2---------0--------------------------|     
A|-3---------0^2---------------------------|     
E|----------3------------------------------|

e|----------------2-3/14-14-14-14-14-------|
B|----------------3-3/15-15-15-15-15-------|
G|-----0----------2-2/14-14-14-14-14-------|
D|--0^2---------0--------------------------|
A|-3---------0^2---------------------------|
E|----------3------------------------------|

PLAY CHORUS


SOLO (STILL WITH 1st GUITAR INTRO IN BACKGROUND)
   Not exact but sound goods, just mess around and make your own solo
e|-------------------------------------------------------------------|
B|-------------------------------------------------------------------|
G|-------10/12-10-----------12p10---12p10---12p10--10^12p10^12-------|
D|-10-XX12-------12p10^12-------12------12------12-------------12-10b|
A|-------------------------------------------------------------------|
E|-------------------------------------------------------------------|

e|----------------------------------------------10-10-10-10-10--
B|----------------------------------------------10-10-10-10-10--
G|------10/12-10---------12p10---12p10---10^12--11-11-11-11-11--
D|-10-XX--------12p10^12------12------12------------------------
A|--------------------------------------------------------------
E|--------------------------------------------------------------

e|-----15-13-----------13p10------10-15b15-15-15-13----------13-|
B|-13b-------15p13^15--------13p10------------------15p13^15----|
G|--------------------------------------------------------------|
D|--------------------------------------------------------------|
A|--------------------------------------------------------------|
E|--------------------------------------------------------------|

e|-15p13----------------|
B|------15p13^15--------|
G|----------------------|
D|----------------------|
A|----------------------|
E|----------------------|

That its, i didnt tab the 2nd part to the song



            
            
Suggest correction
Creating personal tab
Creating personal tab
You can edit any tab online and save it as your Personal.

You can edit, replace or remove any tab part or add personal notes – all changes will be seen only by you.

Personal tabs can be accessed anytime from any device, even offline.
Learn more »
Give kudos to tab author, rate the tab!
1 2 3 4 5
comments
print report bad tab
guest
Wanna post a correction for this tab? Suggest correction