Oops, an error
Loading. Please wait.

Reward For Me tab

version 2
version 2

Whole song

2,389 views 6 this week
1 commentread comment
1 2 3 4 5
3 more votes to show rating
add to favorites
×
Save as Personal and add changes to this tab that will be seen only by you. Learn more ›
×
You can save this tab as Personal to edit and correct it or add notes. All changes will be seen only by you. Learn more »
launch autoscroll
font size
0
reset
how to read this tab
guitar tuner
edit
Autoscroll
slow
fast
+/-
esc
set tempo
stop
Author
Difficulty
tabbed by jordan ward

EDIT: Second part of guitar 1.
EDIT: Second part of guitar 2. I can't seem to get the hammer-on's and pull-off's right. 
This is the closest I got so far. I want to make the slides for this part into 
hammer-on's, but I can't get my fingers to do that. I would love some feedback.

first off, i love slightly stoopid. if you have any corrections, please send me a 
message or leave it in the comments.

here's the bare parts, figure out the strumming, it's pretty easy
i realize i left out the harder picking parts. if someone else wants to tab it, i
would love to add it and give you credit

guitar 1

     c    d    g
e|---0----2----3---------|
B|---1----3----3---------|
G|---0----2----0---------|
D|---2----0----0---------|    X 2
A|---3---------x---------|
E|---x---------3---------|

     c       d
e|---0-0-----2-2-2-3-2-0-2----|
B|---1/3-----3-3-3-3-3-3-3----|
G|---0-0-----2-2-2-2-2-2-2----|
D|---2/4-----0-0-0-0-0-0-0----|    X 1
A|---3/5----------------------|
E|---x-x----------------------|

     c    d    em
e|---0----2----0---------|
B|---1----3----0---------|
G|---0----2----0---------|
D|---2----0----2---------|    X 1
A|---3---------2---------|
E|---x---------0---------|

     c    d    g
e|---0----2----3------------------|
B|---1----3----3------------------|
G|---0----2----0------------------|
D|---2----0----0---------|    X 1-|
A|---3---------x------------------|
E|---x---------3------------------|


guitar 2

part 1
e|---8-----10------7---|
B|---8-----10------8---|
G|---9-----0-------7---|
D|---------------------|
A|---------------------|
E|---------------------|

part 2
e|---8--/10-10------------|
B|---8--/10-10------------|
G|---9--/11-11/12/11p9h11-|
D|------------------------|
A|------------------------|
E|------------------------|

            
            
Suggest correction
Creating personal tab
Creating personal tab
You can edit any tab online and save it as your Personal.

You can edit, replace or remove any tab part or add personal notes – all changes will be seen only by you.

Personal tabs can be accessed anytime from any device, even offline.
Learn more »
Give kudos to tab author, rate the tab!
1 2 3 4 5
comments
print report bad tab
1 comment total.
0 reply
moveshhh 105 Jun 17, 2010 09:35 AM

for guitar 1 part 1
the g is 330003 or 3300X3, i like 3300X3
also, usually they play like this
c d g
c d (part 2)
c d em
c d g

guest
You may want to rate the tab now too:
select rating
Wanna post a correction for this tab? Suggest correction