Oops, an error
Loading. Please wait.

Runnin With A Gun intro tab

4,104 views 1 this week
1 commentread comment
1 2 3 4 5
x 3
add to favorites
×
Save as Personal and add changes to this tab that will be seen only by you. Learn more ›
×
You can save this tab as Personal to edit and correct it or add notes. All changes will be seen only by you. Learn more »
launch autoscroll
font size
0
reset
how to read this tab
guitar tuner
edit
Autoscroll
slow
fast
+/-
esc
set tempo
stop
Author
Difficulty
Alright, this is all I have of the intro... from what i can see on the live in san diego
this is how miles plays it.. it sounds right to me... my guitar is in the shop right
so this is from memory but im almost positive its correct... I'd appreciate if somebody 
attempt to tab out other parts of the song... the intro isn't complete but i'll try to
the rest of it out when i get my guitar back... hope this helps.

intro (played with an effect i can't quite put my finger on)

e----------------------------------------------------------------------|
b----------------------------------------------------------------------|
g-9-/11-9-/11-9-------------------------9-/11-9-/11-9--8~--------------|
d-10/12-10/12-10----------10-10-12-10~--10/12-10/12-10-----------------|
a----------------12-12-12----------------------------------------------|
E----------------------------------------------------------------------|

            
            
Suggest correction
Creating personal tab
Creating personal tab
You can edit any tab online and save it as your Personal.

You can edit, replace or remove any tab part or add personal notes – all changes will be seen only by you.

Personal tabs can be accessed anytime from any device, even offline.
Learn more »
Give kudos to tab author, rate the tab!
1 2 3 4 5
comments
print report bad tab
1 comment total.
-1 reply
rastabobbyj 156 Jul 19, 2008 06:39 PM

alright, this was wrong, here's the real way to play it:

e---------------------------------------------
b----------------------------------------6686-
g-5/7-5/7-5-------5575--5/7-5/7-57~-7777------
d----------7~-7777----------------------------
a---------------------------------------------
E---------------------------------------------

guest
You may want to rate the tab now too:
select rating
Wanna post a correction for this tab? Suggest correction