Oops, an error
Loading. Please wait.

This Joint Bass Tab

version 1
version 1

Whole song

39,959 views 69 this week
4 commentsread comments
1 2 3 4 5
x 24
add to favorites
launch autoscroll
font size
0
reset
guitar tuner
Autoscroll
slow
fast
+/-
esc
set tempo
stop
Help us to improve Ultimate-Guitar.com Take our survey!
×
Difficulty
intermediate
Intro
G|-------8888-------6-4444-|
D|-8-6--------6-4----------|         x2
A|-----6----------4--------| 
E|-------------------------|

Other
G|-----------6-4--------------|
D|-8-6---8-9-----4-------9999-|
A|-----6-----------4-7-7------|
E|----------------------------|

Repeat and switch off between those two throughout the whole song

Suggest correction
comments
print report bad tab
4 comments total. Showing first comments.
0 reply
O-52-A-50-R 946 Apr 08, 2008 05:20 PM

I think the first note is 6 instead of 8

0 reply
O-52-A-50-R 946 Apr 08, 2008 05:21 PM

Never mind I just realized how you wrote it.

+5 reply
clint125441 32 Jul 27, 2009 04:59 PM

this is pretty much it except it sounds better if you slide.

Intro
G|-----------8888-----------6-4444-|
D|-6/8-4/6--------4/6-2/4----------| x2
A|---------6--------------4--------|
E|---------------------------------|

guest
You may want to rate the tab now too:
select rating
Wanna post a correction for this tab? Suggest correction