Oops, an error
Loading. Please wait.

This Joint bass

version 2
version 2

Whole song

12,595 views 1 this week
3 commentsread comments
1 2 3 4 5
x 8
add to favorites
×
Save as Personal and add changes to this tab that will be seen only by you. Learn more ›
×
You can save this tab as Personal to edit and correct it or add notes. All changes will be seen only by you. Learn more »
launch autoscroll
font size
0
reset
guitar tuner
edit
Autoscroll
slow
fast
+/-
esc
set tempo
stop
Difficulty
Listen for the timing because it sounds like there are 2 basses in the song...


Bass 1
G:---------------7/888888------------5/644444------|
D:----7/8--6----------------5/6--4-----------------|
A:-----------6---------------------4---------------|
E:-------------------------------------------------|

Bass 2
G:--------------------6p4-3------------------------|
D:----7/8--6----7/8-9-------4-----99999------------|
A:-----------6----------------4-7------------------|
E:-------------------------------------------------|


I like to do the first riff 2 times and on every 3rd I do the 2nd riff

My first tab, I decided to do an easy one  :p
Suggest correction
Creating personal tab
Creating personal tab
You can edit any tab online and save it as your Personal.

You can edit, replace or remove any tab part or add personal notes – all changes will be seen only by you.

Personal tabs can be accessed anytime from any device, even offline.
Learn more »
comments
print report bad tab
3 comments total.
0 reply
AustinLyle 10 Oct 06, 2013 06:36 PM

i think the second time you play 7/8 on the first riff it is supposed to be 6/8.
Great Tab! Thanks!(:

0 reply
duditch415 10 Mar 14, 2014 08:30 PM

what tuning is this?

guest
Wanna post a correction for this tab? Suggest correction