Oops, an error
Loading. Please wait.

Wiseman Bass

version 1
version 1

Whole song

Interactive

13,436 views 3 this week
3 commentsread comments
1 2 3 4 5
x 4
add to favorites
launch autoscroll
font size
0
reset
guitar tuner
×
Best way to learn
"Wiseman"
Autoscroll
slow
fast
+/-
esc
set tempo
stop
Artist: Slightly Stoopid
Song: Wiseman (track 11)
Album: Everything You Need
Tabbed by: Ryan VanPatten (futrebartender5@netscape.net)

Time: 0:16  Repeat
G--------------------------------------------------|
D------------55-5/-------------77-55-44------------|
A--77-----33-----------55---55---------------------|
E-----00-----------33------------------------------|

Time: 1:13   Repeat
G-------------------------------------------|
D-------------55-------------55----77-------|
A--77------33------77-----33----55----------|
E-----00--------------00--------------------|

Time: 1:39  Repeat
G--------------------------------------------------|
D------------55-5/-------------77-55-44------------|
A--77-----33-----------55---55---------------------|
E-----00-----------33------------------------------|

Time: 1:58  Repeat
G-------------------------------------------|
D-------------55-------------55----77-------|
A--77------33------77-----33----55----------|
E-----00--------------00--------------------|

Time: 2:23  Repeat
G--------------------------------------------------|
D------------55-5/-------------77-55-44------------|
A--77-----33-----------55---55---------------------|
E-----00-----------33------------------------------|

Hey, i figured this out in like 5 minutes...i juss had to sit down and figure out at 
time to change the parts, i didn't put how many times to play each part, but you repeat it 
the next part comes so its pretty simple, im working on the rest of the
album c ya...email me if you have questions
Suggest correction
comments
print report bad tab
3 comments total.
0 reply
ruker 3,458 Apr 14, 2008 01:58 PM

First riff is more like this...
G--------------------------------------------------|
D------------55-5/-------------77-55-4h5h4---------|
A--77-----33-----------55---55---------------------|
E-----00-3---------33------------------------------|

+3 reply
bassplayer27 312 Aug 20, 2008 08:21 PM

Close but this is rukers intro and your piece, you are missing tiny note that bring pieces together.
G--------------------------------------------------|
D------------55-5/-------------77-55-4h5h4---------|
A--77-----33-----------55--3-55--------------------|
E-----00-3---------33------------------------------|

G--------------------------------------------|
D-------------55-------------55----77--------|
A--77------33-----5-77----7-33----55---------|
E-----00-0-------------00--------------------|

guest
You may want to rate the tab now too:
select rating
Wanna post a correction for this tab? Suggest correction