Oops, an error
Loading. Please wait.

Wiseman Tab

version 1
version 1

Solo

Whole song

Interactive

16,698 views 6 this week
4 commentsread comments
1 2 3 4 5
x 10
add to favorites
launch autoscroll
font size
0
reset
how to read this tab
guitar tuner
Autoscroll
slow
fast
+/-
esc
set tempo
stop
----------------------------------------------------------------------------
                             Wiseman - Slightly Stoopid
----------------------------------------------------------------------------
Tabbed by: Nick Iaconis


e|-------------------------------------------------------------------------|
B|-------------------------------------------------------------------------|
G|-------------------------------------------------------------------------|
D|---2-2------------5-5---------------7-7-5-5-4h5p-------------------------|
A|--------------3-3---------5-5---5-5--------------------------------------|
E|-------0-0------------3-3------------------------------------------------|

Enjoy
Suggest correction
comments
print report bad tab
4 comments total. Showing first comments.
+1 reply
Psuplaya87 10 Oct 23, 2003 08:00 PM

this is a great tab. the ending should go like this
-----------------------------|
-----------------------------|
-----------------------------|
4h5p4----0-0-----------------|
-----------------------------|
-----------------------------|And Listen to the song and get the timing... Otherwise its a good tab!!!!

-2 reply
bropark08 135 Jul 27, 2006 08:34 AM

not right at all??

-2 reply
AXmichigan 161 Jun 07, 2007 11:49 PM

wrong

guest
You may want to rate the tab now too:
select rating
Wanna post a correction for this tab? Suggest correction