Oops, an error
Loading. Please wait.

Don Aman tab

by Slint
18,432 views 45 this week
4 commentsread comments
1 2 3 4 5
x 16
add to favorites
×
Save as Personal and add changes to this tab that will be seen only by you. Learn more ›
×
You can save this tab as Personal to edit and correct it or add notes. All changes will be seen only by you. Learn more »
launch autoscroll
font size
0
reset
how to read this tab
guitar tuner
edit
Autoscroll
slow
fast
+/-
esc
set tempo
stop
Author
Slint - Don, Aman

Album: Spiderland - 1991
Instrument: Guitar
Tuning: Standard

Tabbed by: Kerim B. Jansson (one-weak)

Added some elements to simulate bass. Enjoy!



Intro:
[00:00]

e||------------------------------------------------------||
B||------------------------------------------------------||
G||------------------------------------------------------||
D||--2---2--2--2---2---2---3---2-------------------------||
A||--2---2--2--2---2---2---2---2-------------------------||
E||--3---0--0--0---3---0---0---0-------------------------||

e||------------------------------------------------------||
B||------------------------------------------------------||
G||------------------------------------------------------||
D||--0--0--0---0--0--0-------------------2--2--2--2--2---||
A||--5--5--5---4--4--4----------[01:45]--0--0--0--2--2---||
E||--6--6--6---5--5--5-------------------0--0--0--3--0---||

[01:52]

e||------------------------------------------------------||
B||------------------------------------------------------||
G||------------------------------------------------------||
D||-----7----5--------5----------------------------------||
A||----5----3------3-------------------------------------||
E||---6----4----0----------------------------------------||

[02:04]
From here on, listen to song for rythm and variations.

e||------------------------------------------------------||
B||------------------------------------------------------||
G||------------------------------------------------------||
D||---5--5--5---5--5--5----4--4--4---6--6--6-------------||
A||---3--3--3---3--3--5----3--3--3---3--3--3-------------||
E||---3---------4----------------------------------------|| <---- bass simulations on E

[04:23]
Distortion

e||------------------------------------------------------||
B||------------------------------------------------------||
G||------------------------------------------------------||
D||---5--5--5---4--4--4---6--6--6------------------------||
A||---3--3--3---3--3--3---3--3--3------------------------||
E||---3--3--3---2--2--2---4--4--4------------------------||

[04:43]

e||------------------------------------------------------||
B||------------------------------------------------------||
G||------------------------------------------------------||
D||---4--4--4---6--6--6---2--2--2---2--2--2--2-----------||
A||---3--3--3---3--3--3---2--2--2---2--2--2--2-----------||
E||---2--2--2---4--4--4---0--0--0---3--0--3--0-----------||

[05:01]
Same as intro.

[06:05]
Distortion and fade out.

e||------------------------------------------------------||
B||------------------------------------------------------||
G||------------------------------------------------------||
D||---4--4--4---6--6--6---4--4--4---6--6--6--------------||
A||---3--3--3---3--3--3---3--3--3---3--3--3--------------||
E||---2--2--2---4--4--4---2--2--2---4--4--4--------------||

End.


Lyrics:

Don stepped outside.
It feels good to be alone.
He wished he was drunk.
He thought about something he said,
And how stupid it had sounded.
He should forget about it.
He decided to piss, but he couldn't.
(A plane passes silently overhead)

The streetlights, and the buds on the trees, were still.

It finally came, he took a deep breath.
It made him feel strong, and determined,
To go back inside.

The light.
Their backs.
The conversations.
The couples, romancing, so natural.
His friends stare,
With eyes, like the heads of nails.
The others.
Glances.
With amusement,
With amazement,
With contempt.
So distant,
With malice,
For being, a sty in their engagement.
Like swimming underwater in the darkness.
Like walking through an empty house,
Speaking to an imaginary audience.

He watched, outside.
A soul without a key.
He could not dance to anything.

Don left,
And drove,
And howled,
And laughed,
At himself.
He felt he knew what that was.

Don woke up,
And looked at the night before.
He knew what he had to do.
He was responsible.
In the mirror,
He saw his friend.

            
            
Suggest correction
Creating personal tab
Creating personal tab
You can edit any tab online and save it as your Personal.

You can edit, replace or remove any tab part or add personal notes – all changes will be seen only by you.

Personal tabs can be accessed anytime from any device, even offline.
Learn more »
comments
print report bad tab
4 comments total. Showing first comments.
+3 reply
budameat 540 Jan 23, 2012 12:22 AM

A small correction

[02:04]
From here on, listen to song for rythm and variations.

e||------------------------------------------------------||
B||------------------------------------------------------||
G||------------------------------------------------------||
D||---5--5--5---5--5--5----4--4--4---6--6--6-------------||
A||---3--3--3---3--3--5----3--3--3---3--3--3-------------||
E||---0--0--0---4--4--4----------------(4)----------------||

+3 reply
budameat 540 Jan 23, 2012 12:22 AM

[04:23]
Distortion

e||------------------------------------------------------||
B||------------------------------------------------------||
G||---5--5--5--------------------------------------------||
D||---5--5--5---4--4--4---6--6--6------------------------||
A||---3--3--3---3--3--3---3--3--3------------------------||
E||-------------4--4--4---4--4--4------------------------||

[04:43]

e||------------------------------------------------------||
B||------------------------------------------------------||
G||------------------------------------------------------||
D||---4--4--4---6--6--6---2--2--2---2--2--2--2-----------||
A||---3--3--3---3--3--3---2--2--2---2--2--2--2-----------||
E||---4--4--4---4--4--4---0--0--0---3--0--3--0-----------||

[05:01]
Same as intro.

[06:05]
Distortion and fade out.

e||------------------------------------------------------||
B||------------------------------------------------------||
G||------------------------------------------------------||
D||---4--4--4---6--6--6---4--4--4---6--6--6--------------||
A||---3--3--3---3--3--3---3--3--3---3--3--3--------------||
E||---4--4--4---4--4--4---4--4--4---4--4--4--------------||

End.

+1 reply
budameat 540 Jan 23, 2012 12:58 AM

Or as seen here:

Slint - Don, Aman (live at the Abbey Pub)

[04:23]
Distortion

e||------------------------------------------------------||
B||------------------------------------------------------||
G||------------------------------------------------------||
D||---10-10-10--4--4--4---6--6--6------------------------||
A||---10-10-10--3--3--3---3--3--3------------------------||
E||---8--8--8---4--4--4---4--4--4------------------------||

guest
You may want to rate the tab now too:
select rating
Wanna post a correction for this tab? Suggest correction