Oops, an error
Loading. Please wait.

Washer bass

by Slint
1,493 views 18 this week
no commentswrite comment
1 2 3 4 5
x 3
add to favorites
×
Save as Personal and add changes to this tab that will be seen only by you. Learn more ›
×
You can save this tab as Personal to edit and correct it or add notes. All changes will be seen only by you. Learn more »
launch autoscroll
font size
0
reset
guitar tuner
edit
Autoscroll
slow
fast
+/-
esc
set tempo
stop
Author
Difficulty
----------------------------------------------------------------- 
                          Washer - Slint
----------------------------------------------------------------- 
Tabbed By : baklava151  
e-mail: chrismohrfeld@comcast.net
Tuning: Standard

Main riff (0:22) (x5)

G|----------------------------------|
D|------------------------3---------|
A|--------7-------------------------|
E|---0---------6\3------------------|


Verse riff (1:05) (x4)

G|------------------------|
D|-----------5------------|
A|-----------3------------|
E|--0---------------------|

Main riff (1:42) (x4)

Verse riff (2:17) (x4)

Main riff (2:55) (x3)

Interlude (3:21)

G|-----------------------------------------------|
D|------------------------------9----9/13----13--|
A|------------0--------------7-------------------|
E|--2-----2-----------0--------------------------|

Play this for 3 measures (just eighth notes)
        
G|---12-12-12-12-12-12-12-12---|
D|-----------------------------|
A|-----------------------------|
E|-----------------------------|

Play this for 4 measures (also eighth notes)
     (x3)
G|---16-16-16-16-16-16-16-16--------------------|
D|----------------------------------------------|
A|----------------------------------------------|
E|-----------------------------7-7-7-7-7-7-7-7--|
                              (Go to this note on the fourth measure)

Main riff (3:47) (x4)

Verse riff (4:21) (x4)

Main riff variation (4:59) (x4)


G|--------------------|-----------9---------------|
D|--------------------|-------8-------------------|
A|--------5h7---------|-------------------8-------|
E|--0--0--------------|---0-----------------------|

Interlude (5:33) (When you're playing the high B on the last part of the riff, 
                  don't go to the low B the last time, but stay on the high B)

Quiet part before the loud distorted riff (5:59) (x4)

G|---------------------------------------------------------------------|
D|--7-7-7-7-7-7-7-7-5-5-5-5-5-5-5-5-4-4-4-4-4-4-4-4-5-5-5-5-5-5-5-5----|
A|---------------------------------------------------------------------|
E|---------------------------------------------------------------------|

Build-up to (6:33) (x2)

G|---------------------------------------------------------------------|
D|--8-8-8-8-8-8-8-8-5-5-5-5-5-5-5-5-4-4-4-4-4-4-4-4-5-5-5-5-5-5-5-5----|
A|---------------------------------------------------------------------|
E|---------------------------------------------------------------------|

Loud distorted part (6:50) (It's the main riff x4)

Main riff (7:23) (x9)

Then end on open low E


| /  slide up
| \  slide down
| h  hammer-on
| p  pull-off
| ~  vibrato
| +  harmonic
| x  Mute note

            
            
Suggest correction
Creating personal tab
Creating personal tab
You can edit any tab online and save it as your Personal.

You can edit, replace or remove any tab part or add personal notes – all changes will be seen only by you.

Personal tabs can be accessed anytime from any device, even offline.
Learn more »
Give kudos to tab author, rate the tab!
1 2 3 4 5
comments
print report bad tab
guest
You may want to rate the tab now too:
select rating
Wanna post a correction for this tab? Suggest correction