Oops, an error
Loading. Please wait.

All Hope Is Gone Bass Tab

version 2
version 2

Whole song

Interactive

1,626 views 3 this week
2 commentsread comments
1 2 3 4 5
please rate
add to favorites
launch autoscroll
font size
0
reset
guitar tuner
Autoscroll
slow
fast
+/-
esc
set tempo
stop
Help us to improve Ultimate-Guitar.com Take our survey!
×
Author
All Hope Is Gone
Drop B             

This is straight from my guitar pro tab. any questions or criticisms or problems 
with the layout, feel free to let me know.

Intro x 2 (hammer ons and pull offs)
E ||-------|----------------------------------------|
B ||-------|----------------------------------------|
F#||-------|----------------------------------------|
B ||-------|--6p-3h-6p-3-7p-4h-7p-4-0----6p-3h-6p-3-|
   
---------------------------|
---------------------------|
---------------------------|
--7p-4h-7p-4-0-------------|
   
----------------------------------|
----------------------------------|
----------------------------------|
-------6p-3h-6p-3-7p-4h-7p-4-0----|

------------------------------------------------|    
------------------------------------------------|
--8p-5h-8p-5------------9p-6h-9p-6-10p-7h-10p-7-|
-------------8p-5h-8p-5-------------------------|

Riff x 8

--------------------------|--------------------------|
--------------------------|--------------------------|
--------------------------|--------------------------|
--0--0--6--0--0--5--0--0--|--6--0--0--5--0--3--0--0--|

Break

-------------------|
-------------------|
--8----------------|
--0----------------|

Verse x 4 (tremolo pick all this notes)

--------------------|--------------------|
--------------------|--------------------|
-----------9--------|--8-----------------|
--6-----------------|-----------9--------|

Verse x 4 again
slide from 12 to 6 and continue to tremolo pick (first time only)

-----------------------|--------------------|
-----------------------|--------------------|
--------------9--------|--8-----------------|
--12\\\\\6-------------|-----------9--------|

Break (All Hope Is Gone!)
                           
-------------------|
-------------------|
-------------------|
--0----------------|

Verse 2 x 4 (tremolo pick all this notes as well)
   
--------------------|---------------------|
--------------------|---------------------|
-----------7--------|--8------------------|
--7-----------------|-----------10--------|
   
--------------------|--------------------|
--------------------|--------------------|
--5--------7--------|--8-----------------|
--------------------|-----------6--------|

Chorus

----------------------|-----------------------|
----------------------|-----------------------|
----------------------|-----------------------|
--0----0----0----0----|--0----0----0----0--5--| (hold note till next note)


----------------------|--------------------------|
----------------------|--------------------------|
----------------------|--------------------------|
//////5----5----5----|--7--7--7--7--8--8--8--8---|


----------------------------------|----------------------------------|
----------------------------------|----------------------------------|
----------------------------------|----------------------------------|
--13--13--13--13--13--13--13--13--|--13--13--13--13--13--13--13--13--|


----------------------------------|----------------------------------|
----------------------------------|----------------------------------|
--13--13--13--13--13--13--13--13--|--12--12--12--12--12--12--12--12--|
----------------------------------|----------------------------------|

----------------------|-----------------------|
----------------------|-----------------------|
----------------------|-----------------------|
--0----0----0----0----|--0----0----0----0--5--| (hold note till next note)


----------------------|--------------------------|
----------------------|--------------------------|
----------------------|--------------------------|
//////5----5----5----|--7--7--7--7--8--8--8--8---|

-------------------------|--------------------------|
-------------------------|--------------------------|
-------------------------|--------------------------|
--3----3--3--3--3--3--3--|--3--3--3--3--3--/6----1--|

-------------------------|--------------------------|
--------------------------|--------------------------|
--------------------------|--------------------------|
--L--1--1--1--1--1--1--1--|--1--1--1--1--1--1--1--1--|

Break

-------------------|
-------------------|
-------------------|
--0----------------|

Pre-Solo And Solo x 16

--------------------------|--------------------------|
--------------------------|--------------------------|
--------------------------|--------------------------|
--0--3--6--0--3--5--0--3--|--6--0--5--0--0--3--0--0--|


Chorus x 1


Bridge   

------------------------|---------------------|   x 1
------------------------|---------------------|
------------------------|---------------------|
--8----7----5--7--3--2--|///////1-------------| (hold the 2)
 
-------------------------|---------------------|
-------------------------|---------------------|  x 7
-------------------------|---------------------|
-------8--7--5--7--3--2--|///////1-------------|


Breakdown

------------------------|----------------------|  x 1
------------------------|----------------------|
------------------------|----------------------|
--8----7----5--7--3--2--|///////1----1----1----|(again hold the 2)
       
-------------------------|---------------------|  x 1
-------------------------|---------------------|
-------------------------|---------------------|
--1----8--7--5--7--3--2--|///////1-------------|
 
-------------------------|----------------------|
-------------------------|----------------------|
-------------------------|----------------------|     and these 4
-------8--7--5--7--3--2--|///////1----1----1----|     bars x 3
    
-------------------------|---------------------|
-------------------------|---------------------|
-------------------------|---------------------|
--1----8--7--5--7--3--2--|///////1-------------|


Verse 3 x 4 (tremolo pick all this notes as well)

--------------------|---------------------|
--------------------|---------------------|
-----------7--------|--8------------------|
--7-----------------|-----------10--------|

--------------------|--------------------|
--------------------|--------------------|
--5--------7--------|--8-----------------|
--------------------|-----------6--------|


Chorus x 4


Outro (exactly the same as the bridge and breakdown)

Suggest correction
Give kudos to tab author, rate the tab!
1 2 3 4 5
comments
print report bad tab
2 comments total.
0 reply
tonedeafidiot 48,988 wrote on December 2 2008, 04:32 pm

I could have sworn this was in drop A. I guess I'll listen to it again...

0 reply
Maggot66 90 wrote on December 2 2008, 11:09 pm

It's drop B.
He's correct.

guest
You may want to rate the tab now too:
select rating
Wanna post a correction for this tab? Suggest correction