Oops, an error
Loading. Please wait.

All Hope Is Gone Tab

version 2
version 2

Album

Whole song

Interactive

4,271 views 9 this week
no commentswrite comment
1 2 3 4 5
accurate
x 4
add to favorites
launch autoscroll
font size
0
reset
how to read this tab
guitar tuner
Tab Pro tools
  • play this tab
  • loop segment
  • change instrument
  • show fretboard
  • metronome
Autoscroll
slow
fast
+/-
esc
set tempo
stop
Contributor
Difficulty
advanced
|-----------------|-----------------|
|-----------------|-----------------|
|-----------------|-----------------|
|-----------------|-----------------| x2
|-----------------|-----------------|
|-0-3-6-0-3-5-0-3-|-6-0-3-5-0-3-0-1-|

                         | R |
|----13-17-13h17p13-----------13-17-13h17p13----|
|-------------------15------x----------------17-|
|----------------------14-x---------------------|
|-12--------------------------------------------|
|-----------------------------------------------|
|-----------------------------------------------|

|-23-21p20------------------------------------|
|----------17\16-14--17-15-16-17--------------|
|--------------------------------14-0-----0-0-|
|-----------------------------------------0-0-|
|-------------------------------------14\-----|
|---------------------------------------------|

|----13h17-13-13h17p13---------------17-13-17-13-15-|
|----------------------14---------13----------------|
|-------------------------14-0-15-------------------|
|-12-------------------------0----------------------|
|---------------------------------------------------|
|---------------------------------------------------|

|-18p17----------17-19-20-18p17-------21-22-23-|
|-------17-14\13----------------19-16----------|
|----------------------------------------------|
|----------------------------------------------|
|----------------------------------------------|
|----------------------------------------------|

         |1 1/2|
|-24~~~~~~\22b----22~~~~~~20 ---20-|
|----------------------------19----|
|----------------------------------|
|----------------------------------|
|----------------------------------|
|----------------------------------|

|-20-22-18-22-17-20-23-20-22-18\17-20-18----------|
|----------------------------------------17-20-20-|
|-------------------------------------------------|
|-------------------------------------------------|
|-------------------------------------------------|
|-------------------------------------------------|

|-17-------------17-------------17-20-18-17----------|
|----16-19p18-20----20h18p17-20-------------20-------|
|----------------------------------------------17h19-|
|----------------------------------------------------|
|----------------------------------------------------|
|----------------------------------------------------|

w. wah-wah
|-----------------|-----------------|
|-----------------|-----------------|
|-----------------|-----------------|
|-----------------|-5~~~~~~-7~~~~~~-|
|-5~~~~~~-8~~~~~~-|-----------------|
|-----------------|-----------------|

|---------------------|-----------------|
|---------------------|-----------------|
|-8h7p5---8-8h7p5---8-|-8--8h5p7-5------|
|-------0---------0---|------------0-3--|
|---------------------|-----------------|
|---------------------|-----------------|
        .         .
|-------------------------------|-----------------------2-3h5-6---|
|-------------------------6-8---|-----------------3-3-5-----------|
|-----------------5-5-7-8-----0-|-------------3h5---------------0-|
|---------5-5-6-8-------------0-|-------6-5-6---------------------|
|-5-5-6-8-----------------------|-5-6-8---------------------------|
|-------------------------------|---------------------------------|
  ...............                 ...............

|---------------------6-----4-6-6-|-8-6------------------------------------|
|-------------------5---7-7-------|-----9-8---16-16-15-16-15-13----13-11h15|
|---------------5-7---------------|---------0-------------------15---------|
|---------5-6-8-------------------|---------0------------------------------|
|-5-5-6-8-------------------------|----------------------------------------|
|---------------------------------|----------------------------------------|
  ...............
comments
print report bad tab
I want to post or [tab]
guest
You may want to rate the tab now too:
select rating
Please do not post tabs as comments. Select "correction" instead!