Oops, an error
Loading. Please wait.

Before I Forget Tab

version 1
1,122,244 views 912 this week
121 commentsread comments
1 2 3 4 5
accurate
x 242
add to favorites
launch autoscroll
font size
0
reset
how to read this tab
guitar tuner
Autoscroll
slow
fast
+/-
esc
set tempo
stop
Help us to improve Ultimate-Guitar.com Take our survey!
×
Author
Tuning
B F# B E G# C#
Drop B


[Intro]

C#|------------------------------|       |----------------------|
G#|------------------------------|       |----------------------|
E |------------------------------| X6    |----------------------|
B |-0h2--0h2h3p2--0h2--2h3p2-----|       |-5-5-0-0-5-5-0-0------|
F#|-0h2--0h2h3p2--0h2--2h3p2-----|       |-5-5-0-0-5-5-0-0------|
B |-0h2--0h2h3p2--0h2--2h3p2-----|       |-5-5-0-0-5-5-0-0------|

GO!!!


[Verse]

C#|------------------------------|       |----------------------|
G#|------------------------------|       |----------------------|
E |------------------------------| X6    |----------------------|
B |-0h2--0h2h3p2--0h2--2h3p2-----|       |-5-5-0-0--------------|
F#|-0h2--0h2h3p2--0h2--2h3p2-----|       |-5-5-0-0--------------|
B |-0h2--0h2h3p2--0h2--2h3p2-----|       |-5-5-0-0--------------|

C#|--------------------------------------------------------------|
G#|--------------------------------------------------------------|
E |--------------------------------------------------------------|
B |--2-2-2-2h3p2--2-2-2h3p2---5-5-0-0----------------------------|
F#|--2-2-2-2h3p2--2-2-2h3p2---5-5-0-0----------------------------|
B |--2-2-2-2h3p2--2-2-2h3p2---5-5-0-0----------------------------|


[Pre-Chorus]

C#|--------------------|
G#|--------------------|
E |--------------------|
B |--2-2-2-------------|
F#|--2-2-2-------------|
B |--2-2-2-------------|
     * * *

(Guitar 2)

C#|-----15/16~~-----9/10~~--16/16~~-------|
G#|---------------------------------------|
E |---------------------------------------|
B |---------------------------------------|
F#|---------------------------------------|
B |---------------------------------------|

LISTEN!!


[Chorus]

C#|-----------------------|       |------------------------------|
G#|-----------------------|       |------------------------------|
E |-----------------------| X3    |------------------------------|
B |-2-0h2-5-0h2-5-0-8p7---|       |-7-7-7h9p7-10-5-5-7/8---------|
F#|-2-0h2-5-0h2-5-0-8p7---|       |-7-7-7h8p7-10-5-5-7/8---------|
B |-2-0h2-5-0h2-5-0-8p7---|       |-7-7-7h8p7-10-5-5-7/8---------|

C#|-----------------------------------------------------------------------------|
G#|-----------------------------------------------------------------------------|
E |---------------------------7-5-4-----5-4-2-0---------------------------------|
B |---5555555-4-5555555----------7--------------4-5555555-4-5555555-------------|
F#|-----------------------------------------------------------------------------|
B |-----------------------------------------------------------------------------|

(Guitar 1)

My End, It Justifies My means...
C#|-----------------------------------------------------------------------|
G#|-----------------------------------------------------------------------|
E |-----------------------------------------------------------------------|
B |-----------------------------------------------------------------------|
F#|-2222222-5555555-00000000----------------------------------------------|
B |-2222222-5555555-00000000----------------------------------------------|

  (Guitar 2)
C#|----------------------|
G#|----------------------|
E |----------------------|
B |----------------------|
F#|-0-2-0-2-3p2-0h2------|
B |----------------------|

There Ya go, Its all correct, even the backround riffs in the interlude. Enjoy Maggots!

[Song Order]

Intro X3
Verse X4
Pre Chorus X1
Chorus X2
Verse X3
Pre Chorus X1
Chorus X2
Interlude
Chorus X4


************************************
| h   Hammer-on
| p   Pull-off
| /   Slide up
| \   Slide down
| *   Palm mute
************************************
Suggest correction
comments
print report bad tab
121 comments total. Showing first comments. show 1 bad comment
+4 reply
Punkrocker-lp 10 wrote on August 30 2004, 12:00 am

meh this tab is ok... except the 4 55555555 etc part is wrong.. u missed a whole *** load of stuff

0 reply
locked away 10 wrote on March 20 2005, 12:00 am

practise man

guest
You may want to rate the tab now too:
select rating
Please do not post tabs as comments. Select "correction" instead!