Oops, an error
Loading. Please wait.

Before I Forget Bass Tab

version 2
49,814 views 33 this week
6 commentsread comments
1 2 3 4 5
x 19
add to favorites
launch autoscroll
font size
0
reset
guitar tuner
Autoscroll
slow
fast
+/-
esc
set tempo
stop
Help us to improve Ultimate-Guitar.com Take our survey!
×
Tuning
B F# B E G# C#
-----------------------------------------------------------------------------                   
Before I Forget- slipknot
-----------------------------------------------------------------------------
tabbed by Wes Mendenhall
email: thewes41@aol.com
tune your bass to drop b before playin this song

[Intro]
D|--------------------|    |--------------------|   
A|--------------------|x3  |--------------------|  
E|--------------------|    |--------------------|
B|-0h2-0h2-3p2-0h2-3p2|    |-2020--550-550------|

D|--------------------|    |--------------------|
A|--------------------|x3  |--------------------|
E|--------------------|    |--------------------|
B|-0h2-0h2-3p2-0h2-3p2|    |-0220-550-----------|

D|--------------------|    |--------------------|
A|--------------------|x3  |--------------------|
E|--------------------|    |--------------------|
B|-0h2-0h2-3p2-0h2-3p2|    |-2020--550-550------|

[Verse]
D|-------------------------------------|
A|-------------------------------------|x4
E|-------------------------------------|
B|-2223-223-2223-223-2223-223-2220-550-|

[Pre-Chorus]
D|------------------|
A|------------------|
E|----3--------3----|
B|-222-2223-222-2223|

[Chorus]
D|------------------------------------------------------------------------------------|
A|------------------------------------------------------------------------------------|x2
E|------------------------------------------------------------------------------------|
B|-2-3-2-5-0-0-5-0-8+---2-3-2-5-0-0-5-0-8p7---2-3-2-5-0-0-5-0--8p7-7-7-8-1-0-5-5-5-8p7|
 now play the first part of the intro x1

[Verse]
D|-------------------------------------|
A|-------------------------------------|x2
E|-------------------------------------|
B|-2223-223-2223-223-2223-223-2220-550-|

[Pre-Chorus]
D|------------------|
A|------------------|
E|----3--------3----|
B|-222-2223-222-2223|

[Chorus]
D|------------------------------------------------------------------------------------|
A|------------------------------------------------------------------------------------|x2
E|------------------------------------------------------------------------------------|
B|-2-3-2-5-0-0-5-0-8+---2-3-2-5-0-0-5-0-8p7---2-3-2-5-0-0-5-0--8p7-7-7-8-1-0-5-5-5-8p7|

[Bridge]
D|-----------------------------------------------------|
A|-----------------------------------------------------|x8
E|------------------------------------------2-2-2/5-5-5|
B|-3-3-3-3-3-3-3-0-0-0-0-0-0-0-2-2-2-2-2-2-2-----------|

[Chorus]
D|------------------------------------------------------------------------------------|
A|------------------------------------------------------------------------------------| x3
E|------------------------------------------------------------------------------------|
B|-2-3-2-5-0-0-5-0-8+---2-3-2-5-0-0-5-0-8p7---2-3-2-5-0-0-5-0--8p7-7-7-8-1-0-5-5-5-8p7|

[Outro]
D|--------------------|
A|--------------------|
E|--------------------|x7
B|-0h2-0h2-3p2-0h2-3p2|

  end on
D|-------------|
A|-------------|
E|-------------|
B|-2020-550-550|

Its a pretty easy song and its fun to play once you learn it
email me if you have any guestions or comments

************************************

| x  Dead note
| h  Hammer-on
| p  Pull-off
| /  Slide up 

************************************
Suggest correction
comments
print report bad tab
6 comments total. Showing first comments.
0 reply
T.B.K. 97 Oct 19, 2006 02:39 PM

ok good tab, but drop b its not 5 string tunning.....if you wrote begd you mean 5 stríng tunning without g string....but it doesnt matter...:)

-1 reply
crazycram42094 72 Dec 15, 2007 10:03 PM

actually this is kind of bad. at least it isnt as shitty as the 3rd version

-1 reply
crazycram42094 72 Dec 16, 2007 12:39 PM

yeah

guest
You may want to rate the tab now too:
select rating
Wanna post a correction for this tab? Suggest correction