Oops, an error
Loading. Please wait.

Before I Forget Bass Tab

version 3
60,076 views 87 this week
9 commentsread comments
1 2 3 4 5
accurate
x 15
add to favorites
launch autoscroll
font size
0
reset
guitar tuner
Tab Pro tools
  • play this tab
  • loop segment
  • change instrument
  • show fretboard
  • metronome
×
Best way to learn
"Before I Forget"
Autoscroll
slow
fast
+/-
esc
set tempo
stop
Difficulty
Tuning
novice
B F# B E G# C#
Slipknot
Before I Forget
Tunning Drop B (B,f#,B,E)

Intro

(Guitar plays 4 lines)
(Then Bass and Drums come in)
E.|----------------------|
B.|----------------------|
F#|----------------------| x3
B.|0h2-0h2-0h2-0h2-3p2p0-|

E.|------------------------|
B.|------------------------|
F#|------------------------|
B.|2-2-2-2-5-5-5-0-5-5-5-0-|

Repeat 3 times
(on 2nd time playing only play 5-5-5-0 once.)

Verse 1
E.|--------------------|
B.|--------------------|
F#|--------------------| x3
B.|2-2-2-2-2---0-2-2-2-|

E.|--------------------------|
B.|--------------------------|
F#|--------------------------|
B.|2-2-2-2-2-5-5-5-0-5-5-5-0-|

Repeat 4 times

Pre Chorus
E.|---------------------------------|
B.|---------------------------------|
F#|----1~~~------------1~~~---------|
B.|2~~~----2~~~3~~~2~~~----2~~~-----|

Chorus
E.|---------------------|
B.|---------------------|
F#|-----0-0---0-0-------| x3
B.|2--2-----5-----5-4-2-|

E.|---------------------|
B.|---------------------|
F#|0--0--0-1-3--3--3--3-|
B.|---------------------|

reapeat 2 times

Pre Verse
E.|----------------------|
B.|----------------------|
F#|----------------------| x3
B.|0h2-0h2-0h2-0h2-3p2p0-|

E.|----------------|
B.|----------------|
F#|----------------|
B.|2-2-2-2-5-5-5-0-|

Verse 2
E.|--------------------|
B.|--------------------|
F#|--------------------| x3
B.|2-2-2-2-2---0-2-2-2-|

E.|--------------------------|
B.|--------------------------|
F#|--------------------------|
B.|2-2-2-2-2-5-5-5-0-5-5-5-0-|

Repeat 4 times

Pre Chorus
E.|---------------------------------|
B.|---------------------------------|
F#|----1~~~------------1~~~---------|
B.|2~~~----2~~~3~~~2~~~----2~~~-----|

Chorus
E.|---------------------|
B.|---------------------|
F#|-----0-0---0-0-------| x3
B.|2--2-----5-----5-4-2-|

E.|---------------------|
B.|---------------------|
F#|0--0--0-1-3--3--3--3-|
B.|---------------------|

reapeat 2 times

Bridge
E.|------------------------------------------------------|
B.|------------------------------------------------------|
F#|---------------------------------------0--0--0/3--3-3-| x8
B.|3--3-3-3-3-3-0--0-0-0-0-0-2--2-2-2-2-2----------------|

Chorus
E.|---------------------|
B.|---------------------|
F#|-----0-0---0-0-------| x3
B.|2--2-----5-----5-4-2-|

E.|---------------------|
B.|---------------------|
F#|0--0--0-1-3--3--3--3-|
B.|---------------------|

repeat 3 times

Outro
E.|----------------------|
B.|----------------------|
F#|----------------------| x7
B.|0h2-0h2-0h2-0h2-3p2p0-|

E.|------------------------|
B.|------------------------|
F#|------------------------|
B.|2-2-2-2-5-5-5-0-5-5-5-0-|
comments
print report bad tab
9 comments total. Showing first comments.
-2 reply
ToolFtW wrote on July 27 2008, 04:55 pm

that sounds a bit right

+2 reply
guitargod42001 wrote on August 9 2008, 10:52 pm

lol i'm playin on a 4 string banjo and it sound goooooood

0 reply
"Nick"savage wrote on August 12 2008, 06:14 pm

intro is wrong

I want to post or [tab]
guest
You may want to rate the tab now too:
select rating
Please do not post tabs as comments. Select "correction" instead!