Oops, an error
Loading. Please wait.

Before I Forget Tab

version 4
135,443 views 132 this week
69 commentsread comments
1 2 3 4 5
x 93
add to favorites
launch autoscroll
font size
0
reset
how to read this tab
guitar tuner
Autoscroll
slow
fast
+/-
esc
set tempo
stop
Help us to improve Ultimate-Guitar.com Take our survey!
×
Author
Tuning
B F# B E G# C#
Tuning: B F# B E G# C#

Slipknot
Before i forget

THE INTRO AND ANYTHING THAT LOOKS LIKE THIS| ARE ALL PULL OFF'S AND HAMMER ON'S


[Intro]

C#|-------------------------------------------------------------------------|
G#|-------------------------------------------------------------------------|
E |-------------------------------------------------------------------------|
B |----------------------------------------------------------X7-------------|
F#|-------------------------------------------------------------------------|
B |-0--2--x--0--2--x--3--2--x--0--2--x--0--3--2-----------------------------|
(drums come in the fourth time)

  then...
C#|-------------------------------------------------------------------------|
G#|-------------------------------------------------------------------------|
E |-------------------------------------------------------------------------|
B |-------------------------------------------------------------------------|
F#|-------------------------5---5-----0-----5---5-----0---------------------|
B |-0--2--x--0--2--x--0--2--5---5-----0-----5---5-----0---------------------|


C#|-------------------------------------------------------------------------|
G#|-------------------------------------------------------------------------|
E |-------------------------------------------------------------------------|
B |----------------------------------------------------X3-------------------|
F#|-0--2--x--0--2--x--3--2--x--0--2--x--0--3--2-----------------------------|
B |-0--2--x--0--2--x--3--2--x--0--2--x--0--3--2-----------------------------|

C#|-------------------------------------------------------------------------|
G#|-------------------------------------------------------------------------|
E |-------------------------------------------------------------------------|
B |-------------------------------------------------------------------------|
F#|-0--2--x--0--2--x--0--2--5----5-------0----------------------------------|
B |-0--2--x--0--2--x--0--2--5----5-------0----------------------------------|

C#|-------------------------------------------------------------------------|
G#|-------------------------------------------------------------------------|
E |-------------------------------------------------------------------------|
B |----------------------------------------------------X3-------------------|
F#|-0--2--x--0--2--x--3--2--x--0--2--x--0--3--2-----------------------------|
B |-0--2--x--0--2--x--3--2--x--0--2--x--0--3--2-----------------------------|

C#|-------------------------------------------------------------------------|
G#|-------------------------------------------------------------------------|
E |-------------------------------------------------------------------------|
B |-------------------------------------------------------------------------|
F#|-0--2--x--0--2--x--0--2--5----5-------0----5---5-----0-------------------|
B |-0--2--x--0--2--x--0--2--5----5-------0----5---5-----0-------------------|

  " Spa -    pled            shut....
C#|---------------------------------|----------------------------------------|
G#|---------------------------------|----------------------------------------|
E |---------------------------------|----------------------------------------|
B |------------------------------X3-|----------------------------------------|
F#|-2--2--2--2--3-----2--2--2--3----|-2--2--2--2--3--------5---5---5--0------|
B |-2--2--2--2--3-----2--2--2--3----|-2--2--2--2--3--0--2--5---5---5--0------|
Pm ...........................................
you want to play all that above 4 times

C#|-------------------------------------------------------------------------|
G#|-------------------------------------------------------------------------|
E |-9-----------------12----------------11----------------10----------------|
B |-------------------------------------------------------------------------|
F#|-7-----------------10-----------------9-----------------8----------------|
B |-------------------------------------------------------------------------|
  |
  | these two things are played at eh same time
  |
C#|-------------------------------------------------------------------------|
G#|-------------------------------------------------------------------------|
E |----------------PH-----------------------------------PH------------------|
B |----------------4------------------PH----------------4-------------------|
F#|------------------------------------5------------------------------------|
B |-2--2----3---2-------2--2---3---2------2--2---3--2-----------------------|
PM  .............       ............      ...........


[Chorus] (x2)
                                                   "Before i forget that!!!!"
C#|-------------------------------------------|----------------------------------------------|
G#|-------------------------------------------|----------------------------------------------|
E |----------------------------------------X3-|----------------------------------------------|
B |-------------------------------------------|----------------------------------------------|
F#|--2----3--2--5------0----5--5--0--8---7----|--7---7---7--8--7--10-----5-----5--5--8--8--7-|
B |--2----3--2--5------0----5--5--0--8---7----|--7---7---7--8--7--10-----5-----5--5--8--8--7-|

C#|-------------------------------------------------------------------------|
G#|-------------------------------------------------------------------------|
E |-------------------------------------------------------------------------|
B |-------------------------------------------------------------------------|
F#|-0--2--x--0--2--x--3--2--x--0--2--x--0--3--2-----------------------------|
B |-0--2--x--0--2--x--3--2--x--0--2--x--0--3--2-----------------------------|

C#|---------------------------------|----------------------------------------|
G#|---------------------------------|----------------------------------------|
E |---------------------------------|----------------------------------------|
B |------------------------------X3-|----------------------------------------|
F#|-2--2--2--2--3-----2--2--2--3----|-2--2--2--2--3--------5---5---5--0------|
B |-2--2--2--2--3-----2--2--2--3----|-2--2--2--2--3--0--2--5---5---5--0------|
Pm ...........................................
play above twice

C#|-------------------------------------------------------------------------|
G#|-------------------------------------------------------------------------|
E |-9-----------------12----------------11----------------10----------------|
B |-------------------------------------------------------------------------|
F#|-7-----------------10-----------------9-----------------8----------------|
B |-------------------------------------------------------------------------|
  |
  | these two things are played at the same time
  |
C#|-------------------------------------------------------------------------|
G#|-------------------------------------------------------------------------|
E |----------------PH-----------------------------------PH------------------|
B |----------------4------------------PH----------------4-------------------|
F#|------------------------------------5------------------------------------|
B |-2--2----3---2-------2--2---3---2------2--2---3--2-----------------------|
PM.............       ............      ...........


[Chorus]

                                                   "Before i forget that!!!!"
C#|-------------------------------------------|----------------------------------------------|
G#|-------------------------------------------|----------------------------------------------|
E |----------------------------------------X3-|----------------------------------------------|
B |-------------------------------------------|----------------------------------------------|
F#|--2----3--2--5------0----5--5--0--8---7----|--7---7---7--8--7--10-----5-----5--5--8--8--7-|
B |--2----3--2--5------0----5--5--0--8---7----|--7---7---7--8--7--10-----5-----5--5--8--8--7-|


[Chorus] (x2)

C#|-------------------------------------------------------------------------------|
G#|-------------------------------------------------------------------------------|
E |-------------------------------------------------------------------------------|
B |-5-5-5-5-5-5-5-4--4-5-5-5-5-5-5-4--5-5-5-5-5-5-4---5-5-5--5-5-4--5-5-5-5-5-5-4-|
F#|-------------------------------------------------------------------------------|
B |-------------------------------------------------------------------------------|

C#|-------------------------------------------------------------------------|
G#|-------------------------------------------------------------------------|
E |-------------------------------------------------------------------------|
B |--5-5-5-5-5-5-4--5-5-5-5-5-5-4--5-5-5-5-/12------------------------------|
F#|-------------------------------------------------------------------------|
B |-------------------------------------------------------------------------|

C#|-------------------------------------------------------------------------|
G#|-------------------------------------------------------------------------|
E |-------------------------------------------------------------------------|
B |-10--10--9------7--7/---10---10--9--9--7--7--5--5--7----7--5----4/----7--|
F#|-------------------------------------------------------------------------|
B |-------------------------------------------------------------------------|

C#|-------------------------------------------------------------------------|
G#|-------------------------------------------------------------------------|
E |-------------------------------------------------------------------------|
B |--5---4-----5--5------5--5--5--5--5--5--5--4---5--5--5--5--5--5--4-------|
F#|-------------------------------------------------------------------------|
B |-------------------------------------------------------------------------|

                                        "my end...."
C#|-------------------------------------------------------------------------|
G#|-------------------------------------------------------------------------|
E |-------------------------------------------------------------------------|
B |--5--5--5--5--5--5--5--7----5--5--9---7--7--7----------------------------|
F#|-------------------------------------------------------------------------|
B |-------------------------------------------------------------------------|

C#|----------------------------------|
G#|----------------------------------|
E |----------------------------------|
B |--7-9-7-10-9-7-9-7-9-7-9-10-9-7-9-|
F#|----------------------------------|
B |----------------------------------|(x2)
  |
  |
  |
  |
C#|----------------------------------|
G#|----------------------------------|
E |----------------------------------|
B |----------------------------------|
F#|--0-2-0-2-3-2-0-2-0-2-0-2-3-2-0-2-|
B |----------------------------------|(x2)
  |
  |
  |
C#|-------------------------------------------------------------------------|
G#|-------------------------------------------------------------------------|
E |-------------------------------------------------------------------------|
B |-------------------------------------------------------------------------|
F#|-3-3-3-3-3-3-5--0-0-0-0-0-0-2--2-2-2-2-2-2--2-2-5---2-5-3----------------|
B |-3-3-3-3-3-3-5--0-0-0-0-0-0-2--2-2-2-2-2----------------3----------------|
PM...........    ............   .........

PLAY THAT WHOLE THING UP THERE ( THE THREE CONNECTED MESSURES) 3 TIMES

(those three measures up there are connected because they are played at the same time)


[Solo]

(part where he starts singing)
C#|-------------------------------------------|----------------------------------------------|
G#|-------------------------------------------|----------------------------------------------|
E |----------------------------------------X3-|----------------------------------------------|
B |-------------------------------------------|----------------------------------------------|
F#|--2----3--2--5------0----5--5--0--8---7----|--7---7---7--8--7--10-----5-----5--5--8--8--7-|
B |--2----3--2--5------0----5--5--0--8---7----|--7---7---7--8--7--10-----5-----5--5--8--8--7-|


[Chorus] (x3)


[Outro]

   "YEA!"    "YEA"
C#|-------------------------------------------------------------------------|
G#|-------------------------------------------------------------------------|
E |-------------------------------------------------------------------------|
B |-------------------------------------------------x4----------------------|
F#|-0--2--x--0--2--x--3--2--x--0--2--x--0--3--2-----------------------------|
B |-0--2--x--0--2--x--3--2--x--0--2--x--0--3--2-----------------------------|

                         "OHHHH........."
C#|-------------------------------------------------------------------------|
G#|-------------------------------------------------------------------------|
E |-------------------------------------------------------------------------|
B |-------------------------------------------------------------------------|
F#|-0--2--x--0--2--x--0--2--5----5-------0----5---5-----0-------------------|
B |-0--2--x--0--2--x--0--2--5----5-------0----5---5-----0-------------------|
 


************************************

| x   don't let the sounds ring 
| /   Slide up
| PM  palm mute

************************************
Suggest correction
comments
print report bad tab
69 comments total. Showing first comments. show 1 bad comment
0 reply
jamiboy 30 Feb 19, 2005 12:00 AM

Dude if u have the book then share the wealth. Tab more songs out.

0 reply
JamesRoot 30 Feb 20, 2005 12:00 AM

good tab dude, yeh if u have the book can u tab opoium of the people just so i no its the right version, UG Stranger is a faggot

guest
You may want to rate the tab now too:
select rating
Wanna post a correction for this tab? Suggest correction