Oops, an error
Loading. Please wait.

Butchers Hook Tab

version 2
version 2

Whole song

Interactive

3,225 views 1 this week
1 commentread comment
1 2 3 4 5
x 4
add to favorites
launch autoscroll
font size
0
reset
how to read this tab
guitar tuner
Autoscroll
slow
fast
+/-
esc
set tempo
stop
Help us to improve Ultimate-Guitar.com Take our survey!
×
Author
-------------------------------------------------------------------------------
                             Slipknot - Butcher's Hook
-------------------------------------------------------------------------------
Tabbed by Survivalism

Tuning: B F# B E G C

Intro:  x2
C |----------------------------------------------------------|
G |----------------------------------------------------------|
E |----------------------------------------------------------|
B |-4--4-------4----4----4-------4--4------4-----4-----------|
F#|-4--4-1-1---4-1--4-1--4--1-1--4--4-1-1--4--1--4-------3/4-|
B |------1-1-----1----1-----1-1-------1-1-----1------1-1-3/4-|
                                                     . .

Verse:  x4
C |---------------------------------------------------------|
G |---------------------------------------------------------|
E |---------------------------------------------------------|
B |-4-------4-----4-------4--3-----4--------4----4----------|
F#|-4--1--1-4--1--4-1--1--2--1--1--4--1--1--4-1--4--1-1-3/4-|
B |----1--1----1----1--1--------1-----1--1----1-----1-1-3/4-|
       .  .    .    .  .        .     .  .    .     . .

Pre-chorus:
C |-Mick:-----------------------------------------------------------------|
G |-----------------------------------------------------------------------|
E |-----------------------------------------------------------------------|
B |-------------7------------------7---------7----------------------------|
F#|-8---7---8------8---7---8---7------8---7-----8---7---8---7---1---3---5-|
B |-------------------------------------------------------------1---3---5-|

C |-James:----------------------------------------------------------------|
G |-----------------------------------------------------------------------|
E |-----------------------------------------------------------------------|
B |-------------2------------------2---------2----------------------------|
F#|-1---0---1------1---0---1---0------1---0-----1---0---1---0---1---3---5-|
B |-------------------------------------------------------------1---3---5-|

Chorus:
C |---------------------------------------------------------------------------------------|
G |---------------------------------------------------------------------------------------|
E |---------------------------------------------------------------------------------------|
B |-----7---7-------3----------3---3/5\3-------7---7-------3-------------------13--13--13-|
F#|-8---7---7---1---3---1------------------8---7---7---1---3---1---5---3---3\\-13--13--13-|
B |-8-------7---1-------1---3--------------8-------7---1-------1---5---3---3\\------------|
                .   .   .                              .   .   .
C |----------------------------------------------------------------|
G |----------------------------------------------------------------|
E |----------------------------------------------------------------|
B |-----7---7-------3----------3---3/7---------7---7-------3-------|
F#|-8---7---7---1---3---1------------------8---7---7---1---3---1---|
B |-8-------7---1-------1---3--------------8-------7---1-------1---|
                .   .   .                              .   .   .

C |--------------------------------------|
G |--------------------------------------|
E |--------------------------------------|
B |-4--------5--------8-----8------------|
F#|-2--3--2--3--3--3--6--7--6--4-1-1-2-3-|
B |----3--2-----3--3-----7-----4-1-1-2-3-|
       .  .     .  .     .     . . . . .

Intro:  x2
C |----------------------------------------------------------|
G |----------------------------------------------------------|
E |----------------------------------------------------------|
B |-4--4-------4----4----4-------4--4------4-----4-----------|
F#|-4--4-1-1---4-1--4-1--4--1-1--4--4-1-1--4--1--4-------3/4-|
B |------1-1-----1----1-----1-1-------1-1-----1------1-1-3/4-|
                                                     . .

Verse:  x4
C |---------------------------------------------------------|
G |---------------------------------------------------------|
E |---------------------------------------------------------|
B |-4-------4-----4-------4--3-----4--------4----4----------|
F#|-4--1--1-4--1--4-1--1--2--1--1--4--1--1--4-1--4--1-1-3/4-|
B |----1--1----1----1--1--------1-----1--1----1-----1-1-3/4-|
       .  .    .    .  .        .     .  .    .     . .

Pre-chorus:
C |-Mick:-----------------------------------------------------------------|
G |-----------------------------------------------------------------------|
E |-----------------------------------------------------------------------|
B |-------------7------------------7---------7----------------------------|
F#|-8---7---8------8---7---8---7------8---7-----8---7---8---7---1---3---5-|
B |-------------------------------------------------------------1---3---5-|

C |-James:----------------------------------------------------------------|
G |-----------------------------------------------------------------------|
E |-----------------------------------------------------------------------|
B |-------------2------------------2---------2----------------------------|
F#|-1---0---1------1---0---1---0------1---0-----1---0---1---0---1---3---5-|
B |-------------------------------------------------------------1---3---5-|

Chorus:
C |---------------------------------------------------------------------------------------|
G |---------------------------------------------------------------------------------------|
E |---------------------------------------------------------------------------------------|
B |-----7---7-------3----------3---3/5\3-------7---7-------3-------------------13--13--13-|
F#|-8---7---7---1---3---1------------------8---7---7---1---3---1---5---3---3\\-13--13--13-|
B |-8-------7---1-------1---3--------------8-------7---1-------1---5---3---3\\------------|
                .   .   .                              .   .   .
C |----------------------------------------------------------------|
G |----------------------------------------------------------------|
E |----------------------------------------------------------------|
B |-----7---7-------3----------3---3/7---------7---7-------3-------|
F#|-8---7---7---1---3---1------------------8---7---7---1---3---1---|
B |-8-------7---1-------1---3--------------8-------7---1-------1---|
                .   .   .                              .   .   .

C |--------------------------------------|
G |--------------------------------------|
E |--------------------------------------|
B |-4--------5--------8-----8------------|
F#|-2--3--2--3--3--3--6--7--6--4\1-2-3-4-|
B |----3--2-----3--3-----7-----4\1-2-3-4-|
       .  .     .  .     .     . . . . .

Breakdown:  x2
C |------------------------------------------|
G |------------------------------------------|
E |------------------------------------------|
B |-------------------------2/4--------------|
F#|-0-----------------4-----2/4-0-----6----1-|
B |-0-----4-4-4-4-4-4-4---------0-----6----1-|
          . . . . . .

Under solo:  x6
C |-------------------------------------------------|
G |-------------------------------------------------|
E |-------------------------------------------------|
B |--------------------------------2/4--------------|
F#|-0------------------------4-----2/4-0-----6----1-|
B |-0----/15~~---4-4-4-4-4-4-4---------0-----6----1-|
                 . . . . . . 
  
 x16
C |-----------|
G |-----------|
E |-----------|
B |-----------|
F#|-4-1-1-2-3-|
B |-4-1-1-2-3-|
    . . . . .

Mick:              James:
C |-----------|    |-------------|
G |-----------|    |-------------|
E |-----------|    |-11\8-8-9-10-|
B |-----------| x8 |-x--x-x-x-x--|
F#|-4\1-1-2-3-|    |-9-\6-6-7-8--|
B |-4\1-1-2-3-|    |-------------|

Chorus:
C |---------------------------------------------------------------------------------------|
G |---------------------------------------------------------------------------------------|
E |---------------------------------------------------------------------------------------|
B |-----7---7-------3----------3---3/5\3-------7---7-------3-------------------13--13--13-|
F#|-8---7---7---1---3---1------------------8---7---7---1---3---1---5---3---3\\-13--13--13-|
B |-8-------7---1-------1---3--------------8-------7---1-------1---5---3---3\\------------|
                .   .   .                              .   .   .

C |-----------------------------------------------------------------------------------------|
G |-----------------------------------------------------------------------------------------|
E |-----------------------------------------------------------------------------------------|
B |-----7---7-------3----------3---3/7---------7---7-------3-------------------13---13---13-|
F#|-8---7---7---1---3---1------------------8---7---7---1---3---1---5---3---3\\-13---13---13-|
B |-8-------7---1-------1---3--------------8-------7---1-------1---5---3---3\\--------------|
                .   .   .
C |---------------------------------------------------------------------------------------|
G |---------------------------------------------------------------------------------------|
E |---------------------------------------------------------------------------------------|
B |-----7---7-------3----------3---3/5\3-------7---7-------3-------------------13--13--13-|
F#|-8---7---7---1---3---1------------------8---7---7---1---3---1---5---3---5\\-13--13--13-|
B |-8-------7---1-------1---3--------------8-------7---1-------1---5---3---5\\------------|
                .   .   .                              .   .   .

C |--------------------------------------------------------------|
G |--------------------------------------------------------------|
E |--------------------------------------------------------------|
B |-----7---7-------3----------3---3/7---------7---7-------3-----|
F#|-8---7---7---1---3---1------------------8---7---7---1---3---1-|
B |-8-------7---1-------1---3--------------8-------7---1-------1-|
                .   .   .                              .   .   .

Ending:
C |--------------------------------------|
G |--------------------------------------|
E |--------------------------------------|
B |-4--------5--------8-----8------------|
F#|-2--3--2--3--3--3--6--7--6--4-1-1-2-3-|
B |----3--2-----3--3-----7-----4-1-1-2-3-|
       .  .     .  .     .     . . . . .

   x8
C |-----------|
G |-----------|
E |-----------|
B |-----------|
F#|-0-0-1-2-3-|
B |-0-0-1-2-3-|
    . . . . 

Mick:              James:
C |-----------|    |-------------|
G |-----------|    |-------------|
E |-----------|    |-11\8-8-9-10-|
B |-----------| x8 |-x--x-x-x-x--|
F#|-4\1-1-2-3-|    |-9-\6-6-7-8--|
B |-4\1-1-2-3-|    |-------------|

  x8
C |-----------|
G |-----------|
E |-----------|
B |-----------|
F#|-0-0-1-2/3-|
B |-0-0-1-2/3-|
    . . . . 

  x6
C |-----------|
G |-----------|
E |-----------|
B |-----------|
F#|-0-0-1-2-3-|
B |-0-0-1-2-3-|

C |------------------------|
G |------------------------|
E |------------------------|
B |------------------------|
F#|-0-0-1-2-3-0-0-1--2-3-4-|
B |-0-0-1-2-3-0-0-1--2-3-4-|
    . . . . . . . .  . . .
Suggest correction
comments
print report bad tab
1 comment total.
0 reply
conor-figgy 121 May 28, 2010 12:51 PM

tuning's a bit wrong the c and g are c# and g# so B F# B E G# C#

guest
You may want to rate the tab now too:
select rating
Wanna post a correction for this tab? Suggest correction