Oops, an error
Loading. Please wait.

Child Of Burning Time Tab

version 1
version 1

Whole song

Interactive

11,592 views 21 this week
2 commentsread comments
1 2 3 4 5
accurate
x 7
add to favorites
launch autoscroll
font size
0
reset
how to read this tab
guitar tuner
Autoscroll
slow
fast
+/-
esc
set tempo
stop
Help us to improve Ultimate-Guitar.com Take our survey!
×
Author
there is only one tab up and it doesnt help me with the rhythm of the song.
ive listed to the song and played along with it and this is wat i got.
i hope this helps u guys.

C#----------------------------------------------| This is the 1st part of the
G#----------------------------------------------| verse
E-----------------------------------------------|
B---2-22-3-33-5-55-3-33-2-2-3p2-33--------------|
F#--2-22-3-33-5-55-3-33-2-2-3p2-33-3--2--3--2-3*|
B---2-22-3-33-5-55-3-33-2-2-3p2-33--33-22-33-2--|
PM    --   --   --   -- - -     --  -- -- -- -

C#----------------------------------------------| For the second part, its a 
G#----------------------------------------------| hammer-on/pull-off  
E-----------------------------------------------| instead of a pinch harmonic
B---2-22-3-33-5-55-3-33-2-2-3p2-33--------------|
F#--2-22-3-33-5-55-3-33-2-2-3p2-33-3--2--3--2-3h5p3|
B---2-22-3-33-5-55-3-33-2-2-3p2-33--33-22-33-2--|
PM    --   --   --   --         --  -- -- -- -

C#----------------------------------------------| For the third part, all  
G#----------------------------------------------| chords are palm muted
E-----------------------------------------------| 
B---2-22-3-33-5-55-3-33-2-2-3p2-33--------------|
F#--2-22-3-33-5-55-3-33-2-2-3p2-33-3--2--3--2-3b|
B---2-22-3-33-5-55-3-33-2-2-3p2-33--33-22-33-2--|
PM  - -- - -- - -- - -- - - - - --  -- -- -- -

C#----------------------------------------------| Let it ring (pre-chorus)
G#----------------------------------------------|
E-----------------------------------------------|
B---2~~~~~~~~~----------------------------------|
F#--2~~~~~~~~~----------------------------------|
B---2~~~~~~~~~----------------------------------|


C#----------------------------------------------| the chorus
G#----------------------------------------------|
E-----------------------------------------------|
B---5~~~~5/888-2~~~~----------------------------|
F#--5~~~~5/888-2~~~~----------------------------|
B---5~~~~5/888-2~~~~----------------------------|


C#----------------------------------------------| verse that starts at about
G#----------------------------------------------| 3:00 ( idk the tremolo riff
E-----------------------------------------------| b4 this. sorry)
B---2-22222-55-33-22-3p2p0-3-33333-33-33-33-33-3| NOTE: this is also the solo
F#--2-22222-55-33-22-3p2p2-3-33333-33-33-33-33-3| backing for the outro solo
B---2-22222-55-33-22-3p2p0-3-33333-33-33-33-33-3|
PM    -----  -  -  -         -----  -  -  -  -

piece everything together and you got child of burning time. 
i got most of the song. sorry that i didnt get all of it. 
enjoy what ive got
Suggest correction
What's this?
You can suggest a correction to this tab. Community and Mods will review your correction and vote to approve or reject it.
comments
print report bad tab
2 comments total.
0 reply
Survivalism 746 wrote on May 13 2009, 04:50 pm

Nobody has this one yet? What a shame, the solo is killer.

0 reply
rebornmaster9 510 wrote on May 27 2009, 09:49 am

well it looks right to me, thanks man this is a big help

guest
You may want to rate the tab now too:
select rating
Please do not post tabs as comments. Select "correction" instead!