Oops, an error
Loading. Please wait.

Circle Bass Tab

version 2
version 2

Whole song

Interactive

1,440 views 1 this week
no commentswrite comment
1 2 3 4 5
2 more votes to show rating
add to favorites
launch autoscroll
font size
0
reset
guitar tuner
Autoscroll
slow
fast
+/-
esc
set tempo
stop
Help us to improve Ultimate-Guitar.com Take our survey!
×
Author
Difficulty
novice
Tabbed by:M4rKnoT
Tune:EADG

I think this is the best way 
to play this wonderful song!
All comfortably in second position...
without moving up and down the hand on the keyboard!
I believe it's pretty correct!!!
                           ENJOY!!!rate please!!
                               STAY SICK!!!

       intro/verse:(0:23)

G|--------------|
D|--0-----2_----|
A|---320-0------|
E|------3-------|    X2

G|--------------|
D|------0-2_----|
A|---023-3------|
E|--3-----------|

G|--------------|
D|--0-----2_----|
A|---320-0------|
E|------3-------|

G|--------------|
D|------2_------|
A|---0----------|
E|--3-23--------|   X5

         chorus:(1:22)

G|----------------------|
D|--0_--X-------2--222--|
A|------0_--3_--X-------|
E|----------------------|   X3

G|----------------------|
D|--0_--X-------2_------|
A|------0_--3_--X-------|
E|----------------------|

--------------------------------------

         verse:(2:00)

G|--------|----------|
D|--------|---2------|
A|--------|--3-------|
E|--0_----|----0_----|

G|--------------|
D|------2_------|
A|---0----------|
E|--3-23--------|   X5

          chorus:(2:40)

G|----------------------|
D|--0_--X-------2--222--|
A|------0_--3_--X-------|
E|----------------------|   X3

G|----------------------|
D|--0_--X-------2_------|
A|------0_--3_--X-------|
E|----------------------|

---------------------------------------

         outro:(3:18.5)

G|-----------------|
D|----------2_-----|
A|--3_--X----------|
E|------3_--X------|   X5

                   END

_=vibrato
X=mute note
Suggest correction
Give kudos to tab author, rate the tab!
1 2 3 4 5
comments
print report bad tab
guest
You may want to rate the tab now too:
select rating
Wanna post a correction for this tab? Suggest correction