Oops, an error
Loading. Please wait.

Circle Chords

version 3
version 3
12,322 views 51 this week
1 commentread comment
1 2 3 4 5
accurate
x 6
add to favorites
launch autoscroll
font size
0
reset
transpose
0
reset
display chords
guitar tuner
Autoscroll
slow
fast
+/-
esc
set tempo
stop
Help us to improve Ultimate-Guitar.com Take our survey!
×
Chords:

    Em          D          A          C          G
e|---0----------2----------0----------0----------3--------------------------|
B|---0----------3----------3----------1----------3--------------------------|
G|---0----------2----------3----------0----------0--------------------------|
D|---2----------0----------3----------2----------0--------------------------|
A|---2----------x----------0----------3----------2--------------------------|
E|---0----------x----------0----------3----------3--------------------------|

Intro: Em

Verse: 

Em 
Give me the dust..... Follow me

Chorus:

D          A               C              Em
All that I wanted were the things I had before

D          A         C            Em 
All that I needed, I never needed more 

D         A             C             Em
All of my questions are answers to my sins 

D             A           C            A
And all of my endings are waiting to begin 

Verse Two:


Em
I know the way..... Follow me

Chorus:

D          A          C              Em  
All that I wanted the things I had before 

D          A        C            Em
All that I needed I never needed more 

D         A              C             Em
All of my questions were answers to my sins

D             A           C            Em
And all of my endings are waiting to begin

Ending:

C G Em Em

Repeat using same strumming pattern as verae and chorus until song fades
Suggest correction
comments
print report bad tab
1 comment total.
-1 reply
porjay 10 wrote on October 13 2004, 12:00 am

1st chord is wrong *** play it like this

--0------0--
--0------0--
--9--OR--x--
--9------2--
--7------2--
--0------0--

guest
You may want to rate the tab now too:
select rating
Wanna post a correction for this tab? Suggest correction