Oops, an error
Loading. Please wait.

Circle Chords

version 5
version 5
1,726 views 1 this week
2 commentsread comments
1 2 3 4 5
worth learning
x 4
add to favorites
launch autoscroll
font size
0
reset
transpose
0
reset
display chords
guitar tuner
Autoscroll
slow
fast
+/-
esc
set tempo
stop
Help us to improve Ultimate-Guitar.com Take our survey!
×
Author
i looked at the other tabs on this site and i dont think none of the come close to
mine . this is how i play it , sounds way better and more right then the other ones
.well here it is
tunings standard 

verses
|---0---------0---------3----|
|---0---------3---------3----|
|---0---------0---------0----|
|---2---------2---------0----|
|---2---------3---------2----|
|---0---------0---------3----|

chorus
|---0-------0---------0---------------0----|
|---3-------0---------1---------------0----|
|---2-------2---------0---------------0----|
|---0-------2---------2---------------2----|
|-----------0---------3---------------2----|
|---------------------0---------------0----|

all that i wanted were the things i had before....
all that.. i needed.. i never......needed more...
all of my questions are answers to my sins....
all of my endings are waiting to begin............

(then after they play the chorus agian listen to it and you will here it, when it 
goes like this  ....

|---0----0----3--------------| - its pretty much the same
|---0----3----3--------------|   as the chorus except
|---0----0----0--------------|   that last part -2 3 2 0 
|---2----2----0--------------|   when you listen to the 
|---2----3----2---0-0-0-0----|   song you will hear it 
|---0----0----3---2-3-2-0----|   and know what im talking about.


there it is its not that easy i mean to time it out but once you listen 
to it enuff and practice you will get the hang of it then it should
be sinch for you. have fun and enjoy hahaha
and questions email me @   silver_scout@hotmail.com
regarding the tabs so i dont delete it obiously eh haha
tabbed by Nate Mckay
remember listen for the timing and how he strums it
Suggest correction
What's this?
You can suggest a correction to this tab. Community and Mods will review your correction and vote to approve or reject it.
comments
print report bad tab
2 comments total.
0 reply
im not mental 4,026 wrote on September 28 2004, 12:00 am

learn how to spell, "Circle."

0 reply
rockinguy33 61 wrote on October 11 2009, 05:39 pm

its CIRCLE, and these aren't chords this is a tab.

guest
You may want to rate the tab now too:
select rating
Please do not post tabs as comments. Select "correction" instead!