Oops, an error
Loading. Please wait.

Confessions Tab

version 2
version 2

Solo

Whole song

Interactive

682 views 1 this week
7 commentsread comments
1 2 3 4 5
worth learning
x 5
add to favorites
launch autoscroll
font size
0
reset
how to read this tab
guitar tuner
Autoscroll
slow
fast
+/-
esc
set tempo
stop
Help us to improve Ultimate-Guitar.com Take our survey!
×
Author
READ! PLEASE! <------

First listen here, this is me playin the solo ---> doesn't sound equal because i don't 
their effects, and it's played with the slipknot(the cd) tune not with EADGBE 
(i have problems with the ftp, will be upload soon tonigh 8 of september)

Mmmm I've seen a lot of tabs about this solo,
all of them sucks, but!
I decided to tab it out, it's almost perfect for sure
try to play it slow.
I guarrante? the quality of this solo, because I only listen to slipknot
And here is some songs u must know about secret slipknot songs:

With andrews: Coleslaw(Demo) that evolves in (like pokemons yes) The Shape
With andrews: Carve -----> Before I forget
Scream instead of don't get close in the japanesse version of the cd
Vol 3. The Subliminal Verses

So let's get started
I know how to play it in three tunes so I select the easier way to play it

== means that while ringing the string play it again
xbx = bend the string till x, where x is a fret, for example 5b7
xsx = slide

EADGBE Always tune (Not always for slipknot)

2:41
--------------------------------------------|
--------------------------------------------|
--------------------------------------------|
----------0---------------------------------|
-1~----1-----1------------------------------|
-----------------1~---1h3h5po3--3h5h6po5----|

2:46
----------------------------------------------------|
----------------------------------------------------|
----------------------------------------------------|
----------------------------------------------------|
-------------8---------10po8---------11b12-10-8-----|
--8h10==10------10po8---------10po8-------------10~-|

2:49
-------------------------------------------------------------------------|
-------------------------------------------------------------------------|
-----------------------------10-12=12b13=b13b14- <-never relase from 12--|
10--12==12b13r12(so-fastbend)--------------------------------------------| and in each "=" you have
-------------------------------------------------------------------------| to play that note while
-------------------------------------------------------------------------| bending, Listen to it

2:51
--------------------------------------------|
--------------------------------------------|
12b14-pb14r12--10---------------------------| pb=pre bend
-------------------12--10--12~--------------|
--------------------------------------------|
--------------------------------------------|

2:53
-------------------------------------------------------|
-------------------------------------------------------|
-------------------------------------------------------|
-------------------------------------------------------|
8h9h10-10b12<(slow one)-10b12-10-8-10-(8b10------------|r8) <-half speed this bend, is
---------------------------------------------  at 2:56-| exactly(more down) (QueingQwah)3:03-|
---12po10-------12po10h12--13b14--12--10-------------------------|  6 seconds
-----------------------------------------------------------------|
-----------------------------------------------------------------|
-----------------------------------------------------------------|

just after the 12b15b13 3:04
---------------------------------------------------|
10-------------------------------------------------|
---12b14-12-10h12po10------------------------------|
----------------------12po10h12--------------------|
---------------------------------------------------|
---------------------------------------------------|

Another speedy picky part (tremolo pick) it's made by picking up and down
so fast in this 2 strings

3:06 All with tremolo pick (up and down so fast)
---------------------------------------------------|
13---15---17---18----------------------------------|
10---12---14---15----------------------------------|
---------------------------------------------------|
---------------------------------------------------|
---------------------------------------------------|

3:10 that precious part like santana xD
20b22(slowly)-kb22--20--18--17---------------------| kb= keep bending
-------------------------------20--18--17----------|
-------------------------------------------19--17--|
---------------------------------------------------|
---------------------------------------------------|
---------------------------------------------------|

Slow part not finished jet, just after the 17
---------------------------------------------------|
---------------------------------------------------|
19b21r19-------------------------------------------| Goodbye slow precious
---------------------------------------------------|  part xD
---------------------------------------------------|
---------------------------------------------------|

3:14 This is the hardest part
---------------------------------------------------|
18-20-17-18----17----------------------------------|
------------19----17-19----17----------------------|
------------------------20----19-20-17-19b20-19----|
---------------------------------------------------|
---------------------------------------------------|

Following the 19
---------------------------------------------------|
---------------------------------------------------|
---------------------------------------------------|
17----19b20-19-------------------------------------|
---20-----------20~--------------------------------|
---------------------------------------------------|

3:18 Tremolo pick part the faster (chachan chan cha chan Terminator 3 xD)
---------------------------------------------------|
-----------------------------------17-18-20--------|
----------------------------17-19------------------|  End of tremolo pick
---------17-------17-19-20-------------------------|  Up and down
17-19-20----20-19----------------------------------|
---------------------------------------------------|

3:20 The sad end, or happy if you have just learnt it
---------------------------------------------------|
20-18-17-------------------------------------------|
---------17-19~------------------------------------|
---------------------------------------------------|
---------------------------------------------------|
---------------------------------------------------|

Hope you enjooooiiiiiiii
A pure Maggot, I don't like other bands, or singers...
Just SlipKnot.

I'm just one more...
Suggest correction
What's this?
You can suggest a correction to this tab. Community and Mods will review your correction and vote to approve or reject it.
comments
print report bad tab
7 comments total. Showing first comments.
0 reply
ibikinz 543 wrote on September 10 2005, 12:00 am

hey dude
ur kwl i luv the knot

+1 reply
Deathblooms 75 wrote on September 11 2005, 12:00 am

Cant be that much of a maggot, the guys name was Anders, not andrew. Anders Colsefni. Get it right man

0 reply
Xx_banx 279 wrote on September 12 2005, 12:00 am

your typing accent makes me giggle. it also makes me giggle that i can distinguish digital accents.
so stoned. 420, word up.
...\m/...

guest
You may want to rate the tab now too:
select rating
Please do not post tabs as comments. Select "correction" instead!