Oops, an error
Loading. Please wait.

Danger Keep Away Tab

version 1
version 1

Whole song

Interactive

21,892 views 54 this week
12 commentsread comments
1 2 3 4 5
excellent!
x 13
add to favorites
launch autoscroll
font size
0
reset
how to read this tab
guitar tuner
Tab Pro tools
  • play this tab
  • loop segment
  • change instrument
  • show fretboard
  • metronome
Autoscroll
slow
fast
+/-
esc
set tempo
stop
Contributor
-------------------------------------------------------------------------------
                             Danger: Keep Away - Slipknot
-------------------------------------------------------------------------------
Tabbed by: [travis]


Tuning: C G C F A D (low to high)

*This whole song is done on a keyboard/synthesizer.
*There's only one part with guitar.

Intro:
Synth:
"We to feel alone.                We too feel alone.                  We"
D|---------------------------------------------------------------------------|
A|---------------------------------------------------------------------------|
F|----------0----------------0-----------------------------------------------|
C|---2--------2p0-----0-------------2------2----------2----------------------|
G|-----------------------7------0--------------------------------------------|
C|-2----2----------5-------------------2------2--2---------------------------|

1A:
Synth:
"too feel alone.          We too feel alone.   We too feel alone   We too"
D|---------------------------------------------------------------------------|
A|---------------------------------------------------------------------------|
F|-----2---------------0-------------------------0---------------0-----------|
C|--------2p0-----0---------2-----2-------4---------2p0----0-----------2-----|
G|------------------7-----0-----------------------------------7-----0--------|
C|--2----------5---------------2-----2-2------2----------5-------------------|

1A cont'd:
Synth:
"feel alone.                                                               "
D|---------------------------------------------------------------------------|
A|---------------------------------------------------------------------------|
F|---------------------0------------------0----------------------------------|
C|----2-------------------2p0-------0----------2-----2--------2--------------|
G|-------------------------------------7-----0-------------------------------|
C|-2-----2-2----0---2-----------5-----------------2-----2-2------------------|

1A cont'd:
Synth:
1A cont'd:                              1A end.
"                                             "
D|---------------------------------------------|
A|---------------------------------------------|
F|----0----------------0-----------------------|
C|-------2p0------0----------2-------2-------4-|
G|------------------7-----0--------------------|
C|-2-----------5------------------2-----2-2----|

1B:
Synth:
"That place in my mind             is that space that you call mine."
D|---------------------------------------------------------------------------|
A|---------------------------------------------------------------------------|
F|----0-------------------0-----------------------0---------------0----------|
C|-------2p0-------0-----------2------2------2-------2p0-----0----------2----|
G|--------------------7------0---------------------------------7-----0-------|
C|-2-----------5--------------------2----2-2----2---------5------------------|

1B cont'd:
Synth:
"That place in my mind      is that space that you call"
D|---------------------------------------------------------------------------|
A|---------------------------------------------------------------------------|
F|---0--------------0------------------------0----------------0--------------|
C|------2p0----0--------2-----2-------2---------2p0-----0-----------2--------|
G|---------------7----0------------------------------------7-----0-----------|
C|-2---------5-------------2-----2-2-----2------------5----------------------|

1B cont'd:       1B end.
Synth:
"mine.         "
D|--------------|
A|--------------|
F|--------------|
C|---2-------2--|
G|--------------|
C|-2----2-2-----|

1C:
Guitar:
"Where have I been all this time?"
D|---------------------------------------------------------------------------|
A|--------7--------------3/5-------------------------------------------------|
F|-----4-------------0-------------------------------------------------------|
C|----------------------------2----------------------------------------------|
G|--7-------------3----------------------------------------------------------|
C|---------------------------------------------------------------------------|

Play 1A:
Play 1C 6 times:
"Lost, enslaved, fatal to climb. I've been waiting for this to unfold, but the pieces
are only good as the whole."


Play 1B:
"Severed myself from my own life. I cut off the only thing that was right. What if I 
never saw you again? I'd die right next to you in the end."


Play 1A:
"That place in my mind is that space that you call mine. That place in my mind is that
space that you call mine."


Play 1B: only this part of it though:
"I won't let you walk a way, without hearing what I have to say."
D|---------------------------------------------------------------------------|
A|---------------------------------------------------------------------------|
F|----0-------------------0-----------------------0---------------0----------|
C|-------2p0-------0-----------2------2------2-------2p0-----0----------2----|
G|--------------------7------0---------------------------------7-----0-------|
C|-2-----------5--------------------2----2-2----2---------5------------------|


1D:
Synth:
"without hearing what I have to say,                                        "
D|---------------------------------------------------------------------------|
A|---------------------------------------------------------------------------|
F|-------0-------------------0-----------------------------------------------|
C|----------2p0------0-------------2---------2------------4------------------|
G|-----------------------7------0--------------------------------------------|
C|-2--------------5----------------------2-------2--2------------------------|

1D cont'd:
Synth:
"without hearing what I have to say.                                        "
D|---------------------------------------------------------------------------|
A|---------------------------------------------------------------------------|
F|-----0-----------------0---------------------------------------------------|
C|--------2p0------0-----------2------2---------2----------------------------|
G|--------------------7-----0------------------------------------------------|
C|-2------------5------------------2-----2-2---------------------------------|


Outro:
Synth:
D|---------------------------------------------------------------------------|
A|---------------------------------------------------------------------------|
F|-----0---------------0--------------------------0-------------0------------|
C|--------2p0----0-----------2-------2-------2------2p0----0---------2-------|
G|------------------7-----0-----------------------------------7-----0--------|
C|-2-----------5------------------2-----2-2-----2--------5-------------------|

Outro cont'd:
Synth:
D|---------------------------------------------------------------------------|
A|---------------------------------------------------------------------------|
F|--------------0------------------------------------------------------------|
C|-----2-----------4---------------------------------------------------------|
G|---------------------------------------------------------------------------|
C|-2------2-2-----------2----------------------------------------------------|

There you have it. Rate and comment it.
[travis]
comments
print report bad tab
12 comments total. Showing first comments. show 1 bad comment
+1 reply
mickmars2 wrote on September 13 2007, 10:26 am

Excellent tab. SlipKnoT usually use
Dropped B tuning but it doesn't really
matter if it's mainly keyboards
arranged for guitar.

+1 reply
godisdead666 wrote on May 2 2008, 01:20 am

thanks for the tab
i an finally correct some mistakes

I want to post or [tab]
guest
You may want to rate the tab now too:
select rating
Please do not post tabs as comments. Select "correction" instead!