Oops, an error
Loading. Please wait.

Danger Keep Away Tab

version 3
version 3

Whole song

Interactive

5,056 views 3 this week
3 commentsread comments
1 2 3 4 5
accurate
x 5
add to favorites
launch autoscroll
font size
0
reset
how to read this tab
guitar tuner
Tab Pro tools
  • play this tab
  • loop segment
  • change instrument
  • show fretboard
  • metronome
×
Best way to learn
"Danger Keep Away"
Autoscroll
slow
fast
+/-
esc
set tempo
stop
Contributor
SlipKnot
Danger - Keep Away
Vol. 3: (Subliminal Verses)

Tabbed By Jeff Franklin (jeffman892@comcast.net)

#----------------------------------PLEASE NOTE--------------------------------#
#This file is the author's own work and represents their interpretation of the#
#song. You may only use this file for private study, scholarship, or research.#
#-----------------------------------------------------------------------------#
Tuning: Dont Know if Its Drop B, But i Play it in Drop D, and Works For the
        most part.
p  (3p2) = pull-off
/  (1/3)= Slide

Most of the rythm in this song is played by an organ/piano. Though i created a guitar 
that sounds exactly like it.


"..We too feel alone, we too feel alone, we too feel alone..."

~Organ Part~ *LET NOTES RING AS MUCH AS POSSIBLE*

E:--------------------------------|
B:--------------------------------|
G:--------------------------------|
D:--0---0---3p2p0---0---0---0---0-|
A:-----------------0---0----------|
D:0---0---0-------3---5---0---0---|

  1 2 3 4 1 2 3 4 1 2 3 4 1 2 3 4   <--- Count, Think Slow

E:------------------------|
B:------------------------|
G:------------------------|
D:--3p2p0---0---0---0---2-|
A:---------0---0----------|
D:0-------3---5---0---0---|


E:------------------------|
B:------------------------|
G:------------------------|
D:--3p2p0---0---0---0---0-|
A:---------0---0----------|
D:0-------3---5---0---0---|


E:--------------------------|
B:--------------------------|
G:--------------------------|
D:--3p2p0---0---0---0---3-2-|
A:---------0---0------------|
D:0-------3---5---0---0-----|

  ~Back to Top...Repeat These 3 Parts in Order Over And Over Throughout Song

~Guitar Part~ *LET NOTES RING AS MUCH AS POSSIBLE*
This is where Corey actually starts singing the song, and where Joey starts drumming.

1:06

E:--------------|
B:1/5-----1/3-3-|
G:--------------|
D:--------------|  Repeat 7 Times
A:--------------|
D:--------------|

  1 + 2 + 3 + 4
comments
print report bad tab
3 comments total.
0 reply
rayjrvasquez wrote on January 27 2007, 05:03 pm

for the part were joey starts drumming try
E|---------------------|
B|------5------1/3-----|
G|----2-----0----------|
D|-----------------0---|
A|-5------1------------|
D|---------------------|

0 reply
[travis] wrote on February 4 2007, 05:27 pm

The guitar riff is off. The tuning is supposed to be at
C G C F A D. Try this version: http://www.ultimate-guitar.com/tabs/s/slipknot/danger_keep_away_ver4_tab.htm

0 reply
[travis] wrote on February 4 2007, 05:28 pm

Here's the guitar riff:

"Where have I been all this time?"
D|---------------------------------------------------------------------------|
A|--------7--------------3/5-------------------------------------------------|
F|-----4-------------0-------------------------------------------------------|
C|----------------------------2----------------------------------------------|
G|--7-------------3----------------------------------------------------------|
C|---------------------------------------------------------------------------|

I want to post or [tab]
guest
You may want to rate the tab now too:
select rating
Please do not post tabs as comments. Select "correction" instead!