Oops, an error
Loading. Please wait.

Dead Memories Bass Tab

version 2
9,496 views 9 this week
2 commentsread comments
1 2 3 4 5
worth learning
x 5
add to favorites
launch autoscroll
font size
0
reset
guitar tuner
Autoscroll
slow
fast
+/-
esc
set tempo
stop
Help us to improve Ultimate-Guitar.com Take our survey!
×
SLIPKNOT
DEAD MEMORIES
ALL HOPE IS GONE
-Tuning: E,A,D,G
Tabbed by:Cdsteroid23
E-mail:cd_seven8710@hotmail.com

----------------------------------------------------------------------


INTRO:    (00:11)
G|--------------|
D|--------------|
A|--------------|
E|--0--3--1--0--|


VERSE:                                 (00:15)
G|-------------------------------------------|
D|-------------------------------------------|
A|-------------------------------------------|
E|--0--0--0--3--3--3--1--1--0--0---0—-0---0--|


G|-------------------------------------------|
D|-------------------------------------------|
A|-------------------------------------------|
E|--0--0--0--3--3--3--1--1--0--0---0—-0---0--|

G|-------------------------------------------|
D|-------------------------------------------|
A|-------------------------------------------|
E|--0--0--0--1--1--1--3—-3—-0--0---0--0—--0--|

G|-------------------------------------------|
D|-------------------------------------------|
A|-------------------------------------------|(x3)
E|--0--0--0--3--3--3--1--1--0--0---0—-0---0--|


PRE-CHORUS:                            (01:01)
G|------------------------------------------|
D|------------------------------------------|(x4)
A|------------------------------------------|
E|--0/8—-7/3--0--0--0--0--6--6--6--6--6--6--|

CORUS:                                          (01:16)
G|---------------------------------------------------|
D|---------------------------------------------------|
A|---------------------------------------------------|
E|--0--0--0--0--0--0--0--0---3--3--3--3--3--3--3--3--|


G|--------------------------------------------------|
D|--------------------------------------------------|
A|---2--2--2--2--2--2--2--2---3--3--3--3--3--3--3--3|
E|--------------------------------------------------|

G|---------------------------------------------------|
D|---------------------------------------------------|
A|---------------------------------------------------|
E|--0--0--0--0--0--0--0--0---3--3--3--3--3--3--3--3--|

G|---------------------------|
D|---------------------------|
A|---------------------------|
E|--10—10—10--9--8--8--8--7--|(It’s “10” not “1” and “0”)


-Repeat VERSE(x2), PRE-CORUS(x4), CORUS(x2) and continue:

OUTRO SOLO:                            (02:45)
G|-------------------------------------------------|
D|-------------------------------------------------|(x4)
A|-------------------------------------------------|
E|--0---7--7---0---7—7---0---7---------------------|

                                      (02:51)
G|------------------------------------------|
D|------------------------------------------|(x4)
A|------------------------------------------|
E|--0/8—-7/3--0--0--0--0--6--6--6--6--6--6--|

                       (03:22)
G|--10—10—10--9--8--8--8--7--|
D|---------------------------|
A|---------------------------|
E|--10—10—10--9--8--8--8--7--|

CORUS FINAL:                                  (30:28)
G|---------------------------------------------------|
D|---------------------------------------------------|
A|---------------------------------------------------|
E|--0--0--0--0--0--0--0--0---3--3--3--3--3--3--3--3--|


G|--------------------------------------------------|
D|--------------------------------------------------|
A|---2--2--2--2--2--2--2--2---3--3--3--3--3--3--3--3|
E|--------------------------------------------------|

G|---------------------------------------------------|
D|---------------------------------------------------|
A|---------------------------------------------------|
E|--0--0--0--0--0--0--0--0---3--3--3--3--3--3--3--3--|


G|--10—10—10--9--8--8--8--7--|
D|---------------------------|(x3)
A|---------------------------|
E|--10—10—10--9--8--8--8--7--|


ENJOY!!!
Suggest correction
comments
print report bad tab
2 comments total.
0 reply
MisterMushroom 303 wrote on April 5 2011, 10:28 am

Dude, you've done an okay job, I can see where you're coming from, but Slipknot play in B or drop B tuning on almost every song, trust me on this, you've DEFINITELY tabbed in the wrong tuning. Paul's favourite tuning was BEAD.

0 reply
DanteKral 57 wrote on April 13 2015, 12:03 am

Mate, this tabbing is right, the tuning not so much but because I want to learn this song so badly and your tab seems to be the only accurate one, I'm going to give you five stars.

guest
You may want to rate the tab now too:
select rating
Wanna post a correction for this tab? Suggest correction