Oops, an error
Loading. Please wait.

Dead Memories Tab

version 2
version 2
25,513 views 12 this week
5 commentsread comments
1 2 3 4 5
worth learning
x 7
add to favorites
launch autoscroll
font size
0
reset
how to read this tab
guitar tuner
Tab Pro tools
  • play this tab
  • loop segment
  • change instrument
  • show fretboard
  • metronome
Autoscroll
slow
fast
+/-
esc
set tempo
stop
Contributor
Difficulty
Tuning
novice
D A D G B E
----------------------------------------------------------------------------
 Dead Memories - Slipknot
----------------------------------------------------------------------------
Tabbed by: MiguelGavi
Email: mortivore4ever@hotmail.com

this is my first tab, hope ye liek

e|-------------------------------------------------------------|
B|-------------------------------------------------------------|
G|--0--0----0--0----0--0----0--0----0---0----0--0--------------|
D|--------------------------------------------------2--5--3--2-|
A|-2--2--2-2--2--2-2--2--2-2--2--2-2------2-2--2--2-2--5--3--2-|
D|2--5--3-2--2--2-2--5--3-2--2--2-2--5---3-2--2--2--2--5--3--2-|

e|--------------------------------------------------------------------------|
B|--------------------------------------------------------------------------|
G|11-11/9-9/7-7/4-----------------------------------------------------------|
D|------------------0--0----0--0----0--0----0--0----0---0----0--0----0--0---|
A|9-9/7-7/5-5/2----2--2--2-2--2--2-2--2--2-2--2--2-2------2-2--2--2-2--2--2-|
D|----------------2--5--3-2--2--2-2--5--3-2--2--2-2--5---3-2--2--2-2--5--3--|

e|-------------------------------|
B|-------------------------------|
G|-------------------------------|
D|2-2-2-2-2-2-2-2-2-2-2-2-2-2-2-2|
A|2-2-2-2-2-2-2-2-2-2-2-2-2-2-2-2|
D|2-2-2-2-2-2-2-2-2-2-2-2-2-2-2-2|
  . . . . . . . . . . . . . . . .

Guitar 1

e|----------------------------------------------------------------|
B|----------------------------------------------------------------|
G|--0--0----0-------0--0----0-------0--0----0-------0--0----0-----|
D|-------------5-5-------------5-5-------------5-5-------------5-5|
A|-2--2--2-2--2----2--2--2-2--2----2-----2-2--2----2--2--2-2--2---|
D|2--5--3-2--2--2-2--5--3-2--2--2-2--5--3-2--2--2-2--5--3-2--2--2-| x2
  .. .. ....+..+.+.. .. ....+..+.+.. .  ....+..+.+.. .. ....+..+.+

Guitar 2 (rhythm)

e|----------------------------------------------------------------|
B|----------------------------------------------------------------|
G|----------------------------------------------------------------|
D|2-2-2-5-5-5-3-3-2-2-2-2-2-2-2-2-2-2-2-5-5-5-3-3-2-2-2-2-2-2-2-2-|
A|2-2-2-5-5-5-3-3-2-2-2-2-2-2-2-2-2-2-2-5-5-5-3-3-2-2-2-2-2-2-2-2-|
D|2-2-2-5-5-5-3-3-2-2-2-2-2-2-2-2-2-2-2-5-5-5-3-3-2-2-2-2-2-2-2-2-|
  . . . . . . . . . . . . . . . . . . . . . . . . . . . . . . . .

e|---------------------------------------------------------------|
B|---------------------------------------------------------------|
G|---------------------------------------------------------------|
D|2-2-2-3-3-3-5-5-2-2-2-2-2-2-2-2-2-2-2-5-5-5-3-3-2-2-2-2-2-2-2-2|
A|2-2-2-3-3-3-5-5-2-2-2-2-2-2-2-2-2-2-2-5-5-5-3-3-2-2-2-2-2-2-2-2|
D|2-2-2-3-3-3-5-5-2-2-2-2-2-2-2-2-2-2-2-5-5-5-3-3-2-2-2-2-2-2-2-2|
  . . . . . . . . . . . . . . . . . . . . . . . . . . . . . . . .


e|----------------------------------------------------------|
B|----------------------------------------------------------|
G|----------------------------------------------------------|
D|22553----02-2-2-3-3-3-3-3-3-3-22553----02-2-2-3-3-3-------|
A|22553----02-2-2-3-3-3-3-3-3-3-22553----02-2-2-3-3-3-3-0---|
D|22553-3~-02-2-2-3-3-3-3-3-3-3-22553-3~-02-2-2-3-3-3----3-0| 2x
        +   . . .                     +   . . .

e|------------------------------------------------------|
B|------------------------------------------------------|
G|------8\11-11-11-11/7-------8\11-11-11-11/9-----------|
D|2-2-2-----------------5-5-5-----------------9-9-9-----|
A|2-2-2-6\9--9--9-9/5---5-5-5-6\9--9--9-9/7---9-9-9-----|
D|2-2-2-----------------5-5-5-----------------9-9-9-----|

e|-----------------------------|
B|-----------------------------|
G|11-11-11-11/7-5-5-5-7-7-7-9-9|
D|-----------------------------|
A|9--9--9--9/5-3-3-3-5-5-5-7-7-|
D|-----------------------------| x2


e|---------------------------------------------------------|
B|---------------------------------------------------------|
G|--0--0----0--0----0--0-----------------------------------|
D|-------------------------2-2-2-2-2-2-2-2-2-2-2-2-2-2-2-2-|
A|-2--2--2-2--2--2-2--2--2-2-2-2-2-2-2-2-2-2-2-2-2-2-2-2-2-|
D|2--5--3-2--2--2-2--5--3--2-2-2-2-2-2-2-2-2-2-2-2-2-2-2-2-|

e|-------------------------------------------------------------|
B|-------------------------------------------------------------|
G|--0--0----0--0----0--0----0--0----0---0----0--0--------------|
D|--------------------------------------------------2--5--3--2-|
A|-2--2--2-2--2--2-2--2--2-2--2--2-2------2-2--2--2-2--5--3--2-|
D|2--5--3-2--2--2-2--5--3-2--2--2-2--5---3-2--2--2--2--5--3--2-|

e|--------------------------------------------------------------------------|
B|--------------------------------------------------------------------------|
G|11-11/9-9/7-7/4-----------------------------------------------------------|
D|------------------0--0----0--0----0--0----0--0----0---0----0--0----0--0---|
A|9-9/7-7/5-5/2----2--2--2-2--2--2-2--2--2-2--2--2-2------2-2--2--2-2--2--2-|
D|----------------2--5--3-2--2--2-2--5--3-2--2--2-2--5---3-2--2--2-2--5--3--|

e|-------------------------------|
B|-------------------------------|
G|-------------------------------|
D|2-2-2-2-2-2-2-2-2-2-2-2-2-2-2-2|
A|2-2-2-2-2-2-2-2-2-2-2-2-2-2-2-2|
D|2-2-2-2-2-2-2-2-2-2-2-2-2-2-2-2|
  . . . . . . . . . . . . . . . .

Guitar 1

e|----------------------------------------------------------------|
B|----------------------------------------------------------------|
G|--0--0----0-------0--0----0-------0--0----0-------0--0----0-----|
D|-------------5-5-------------5-5-------------5-5-------------5-5|
A|-2--2--2-2--2----2--2--2-2--2----2-----2-2--2----2--2--2-2--2---|
D|2--5--3-2--2--2-2--5--3-2--2--2-2--5--3-2--2--2-2--5--3-2--2--2-| x2
  .. .. ....+..+.+.. .. ....+..+.+.. .  ....+..+.+.. .. ....+..+.+

Guitar 2 (rhythm)

e|----------------------------------------------------------------|
B|----------------------------------------------------------------|
G|----------------------------------------------------------------|
D|2-2-2-5-5-5-3-3-2-2-2-2-2-2-2-2-2-2-2-5-5-5-3-3-2-2-2-2-2-2-2-2-|
A|2-2-2-5-5-5-3-3-2-2-2-2-2-2-2-2-2-2-2-5-5-5-3-3-2-2-2-2-2-2-2-2-|
D|2-2-2-5-5-5-3-3-2-2-2-2-2-2-2-2-2-2-2-5-5-5-3-3-2-2-2-2-2-2-2-2-|
  . . . . . . . . . . . . . . . . . . . . . . . . . . . . . . . .

e|---------------------------------------------------------------|
B|---------------------------------------------------------------|
G|---------------------------------------------------------------|
D|2-2-2-3-3-3-5-5-2-2-2-2-2-2-2-2-2-2-2-5-5-5-3-3-2-2-2-2-2-2-2-2|
A|2-2-2-3-3-3-5-5-2-2-2-2-2-2-2-2-2-2-2-5-5-5-3-3-2-2-2-2-2-2-2-2|
D|2-2-2-3-3-3-5-5-2-2-2-2-2-2-2-2-2-2-2-5-5-5-3-3-2-2-2-2-2-2-2-2|
  . . . . . . . . . . . . . . . . . . . . . . . . . . . . . . . .


e|----------------------------------------------------------|
B|----------------------------------------------------------|
G|----------------------------------------------------------|
D|22553----02-2-2-3-3-3-3-3-3-3-22553----02-2-2-3-3-3-------|
A|22553----02-2-2-3-3-3-3-3-3-3-22553----02-2-2-3-3-3-3-0---|
D|22553-3~-02-2-2-3-3-3-3-3-3-3-22553-3~-02-2-2-3-3-3----3-0| 2x
        +   . . .                     +   . . .

e|------------------------------------------------------|
B|------------------------------------------------------|
G|------8\11-11-11-11/7-------8\11-11-11-11/9-----------|
D|2-2-2-----------------5-5-5-----------------9-9-9-----|
A|2-2-2-6\9--9--9-9/5---5-5-5-6\9--9--9-9/7---9-9-9-----|
D|2-2-2-----------------5-5-5-----------------9-9-9-----|

e|-----------------------------|
B|-----------------------------|
G|11-11-11-11/7-5-5-5-7-7-7-9-9|
D|-----------------------------|
A|9--9--9--9/5-3-3-3-5-5-5-7-7-|
D|-----------------------------| x2


e|---------------------------------------------------------|
B|---------------------------------------------------------|
G|--0--0----0--0----0--0-----------------------------------|
D|-------------------------2-2-2-2-2-2-2-2-2-2-2-2-2-2-2-2-|
A|-2--2--2-2--2--2-2--2--2-2-2-2-2-2-2-2-2-2-2-2-2-2-2-2-2-|
D|2--5--3-2--2--2-2--5--3--2-2-2-2-2-2-2-2-2-2-2-2-2-2-2-2-|
                           . . . . . . . . . . . . . . . .


e|------------------------------------------------------------|
B|------------------------------------------------------------|
G|------------------------------------------------------------|
D|------------------------------------------------------------|
A|222222555555333322222552255225222222555555333322222552255225
D|222222555555333322222552255225222222555555333322222552255225
  ............................................................

e|------------------------------------------------------------|
B|------------------------------------------------------------|
G|------------------------------------------------------------|
D|------------------------------------------------------------|
A|222222333333555522222552255225222222555555333322222552255225|
D|222222333333555522222552255225222222555555333322222552255225|
  ............................................................


e|----------------------------------------------------------|
B|----------------------------------------------------------|
G|----------------------------------------------------------|
D|22553----02-2-2-3-3-3-3-3-3-3-22553----02-2-2-3-3-3-------|
A|22553----02-2-2-3-3-3-3-3-3-3-22553----02-2-2-3-3-3-3-0---|
D|22553-3~-02-2-2-3-3-3-3-3-3-3-22553-3~-02-2-2-3-3-3----3-0| 2x
        +   . . .                     +   . . .

e|------------------------------------------------------|
B|------------------------------------------------------|
G|------8\11-11-11-11/7-------8\11-11-11-11/9-----------|
D|2-2-2-----------------5-5-5-----------------9-9-9-----|
A|2-2-2-6\9--9--9-9/5---5-5-5-6\9--9--9-9/7---9-9-9-----|
D|2-2-2-----------------5-5-5-----------------9-9-9-----|

e|-----------------------------|
B|-----------------------------|
G|11-11-11-11/7-5-5-5-7-7-7-9-9|
D|-----------------------------|
A|9--9--9--9/5-3-3-3-5-5-5-7-7-|
D|-----------------------------| x2


e|-------------------------------------|
B|-------------------------------------|
G|--0--0----0--0----0--0---------------|
D|-------------------------------------|
A|-2--2--2-2--2--2-2--2--2--2-2-2-2-2--|
D|2--5--3-2--2--2-2--5--3--3---3---3---| x4

the solo starts liek this and then just play wtv you want at huba fast speed and it will 
just fine

e|------------------------
B|\1211b~\1615b~13h15p13~-
G|------------------------|
D|------------------------|
A|------------------------|
D|------------------------|

the rest of the song is the same as above

awsome song btw

| b  bend
| .  palm mute
| /  slide up
| \  slide down
| h  hammer-on
| p  pull-off
| ~  vibrato
| +  harmonic
| x  Mute note
============================================================================
comments
print report bad tab
5 comments total. Showing first comments.
+1 reply
Chaz-6(sic)6 wrote on September 18 2008, 04:17 pm

Wrong tuning buddy. Should be Drop B.

-1 reply
XtractionProces wrote on October 31 2008, 05:34 am

LMFAO! Drop D?

+1 reply
cm000 wrote on January 1 2009, 02:58 pm

tab sucks way off

I want to post or [tab]
guest
You may want to rate the tab now too:
select rating
Please do not post tabs as comments. Select "correction" instead!