Oops, an error
Loading. Please wait.

Dead Memories Bass Tab

version 3
1,431 views 1 this week
1 commentread comment
1 2 3 4 5
worth learning
x 3
add to favorites
launch autoscroll
font size
0
reset
guitar tuner
Tab Pro tools
  • play this tab
  • loop segment
  • change instrument
  • show fretboard
  • metronome
×
Best way to learn
"Dead Memories"
Autoscroll
slow
fast
+/-
esc
set tempo
stop
Contributor
Difficulty
intermediate
I have put this same tab on a different website so if you see it on another tab website, 
then you will know why.

Tabbed By: Rahkshinaw
esrock.net

Intro x3

Band enters (0:11)

G|---------|
D|---------|
A|---------|
D|---------|
B|-5-8-6-5-|

Pre-verse

G|---------------------------------|
D|---------------------------------|
A|---------------------------------|
D|---------------------------------|
B|-5-5-5-8-8-8-6-6-5-5-5-5-5-5-5-5-| x3

G|-------------------------------------------------|
D|-------------------------------------------------|
A|-------------------------------------------------|
D|-------------------------------------------------|
B|-5-5-5-6-6-6-8-8-X-X-X-X-X-X-X-X-X-X-X-X-X-X-X-X-|


Verse

G|-----------------------------------|
D|-----------------------------------|
A|-----------------------------------|
D|-----------------------------------|
B|-5-5-5-8-8-8-6-6-5-5-8-5-5-8-5-5-8-| x8

Pre-chorus

G|-------------------------|
D|-------------------------|
A|-------------------------|
D|-------------------------|
B|-5-8-7-3p0-0-0-0-6-6-6-6-| x2

G|-------------------------|
D|-------------------------|
A|-------------------------|
D|-------------------------|
B|-5-8-7-3p0-6-6-6-5-5-5-5-|

G|-------------------------|
D|-------------------------|
A|-------------------------|
D|-------------------------|
B|-5-8-7-3p0-0-0-0-6-6-6-6-|

Chorus

G|-----------------------------------------------------------------|
D|-----------------------------------------------------------------|
A|-----------------------------------------------------------------|
D|-8-8-8-8-8-8-8-8-7-7-7-7-7-7-7-7-0-0-0-0-0-0-0-0-3-3-3-3-3-3-3-3-|
B|-----------------------------------------------------------------|

G|---------------------------------------------------|
D|---------------------------------------------------|
A|---------------------------------------------------|
D|-8-8-8-8-8-8-8-8-7-7-7-7-7-7-7-7-------------------|
B|---------------------------------8-8-8-6~-6-6-6-5~-|

Pre-Verse modification

G|---------------------------------|
D|---------------------------------|
A|---------------------------------|
D|---------------------------------|
B|-5-5-5-8-8-8-6-6-5-5-5-5-5-5-5-5-|

G|-------------------------------------------------|
D|-------------------------------------------------|
A|-------------------------------------------------|
D|-------------------------------------------------|
B|-5-5-5-6-6-6-8-8-X-X-X-X-X-X-X-X-X-X-X-X-X-X-X-X-|

Verse modification

G|-----------------------------------------------------------------|
D|-----------------------------------------------------------------|
A|-----------------------------------------------------------------|
D|-----------------------------------------------------------------|
B|-5-5-5-5-5-5-8-8-8-8-8-8-6-6-6-6-5-5-5-5-8-8-5-5-5-5-8-8-5-5-8-8-|x4

Pre-chorus
Chorus x2

Bridge

G|--------------------------------|
D|--------------------------------|
A|--------------------------------|
D|--------------------------------|
B|-5-5-5-8-8-8-6-6-5-5-8-5-5-8-5-8|

G|-------------------------------------------------|
D|-------------------------------------------------|
A|-------------------55-55-5-55-55-5-55-55-5-55-55-|
D|-------------------------------------------------|
B|-5-5-5-8-8-8-6-6-6-------------------------------|

Solo (Just repeat the pre-chorus 4 times)

Guitar part - No bass

End of guitar part

G|------------------|
D|------------------|
A|------------------|
D|------------------|
B|-8-8-8-6~6-6-6-5~-|

Chorus x3
comments
We did not receive enough feedback on this tab! Please rate:
print report bad tab
1 2 3 4 5
1 comment total.
0 reply
mathiaes wrote on January 31 2012, 03:40 am

You copy pasted my tab *******...word for word

I want to post or [tab]
guest
You may want to rate the tab now too:
select rating
Please do not post tabs as comments. Select "correction" instead!