Oops, an error
Loading. Please wait.

Dead Memories Guitar Pro

14,803 views 39 this week
15 commentsread comments
1 2 3 4 5
excellent!
x 12
add to favorites
guitar tuner
Autoscroll
slow
fast
+/-
esc
set tempo
stop
Help us to improve Ultimate-Guitar.com Take our survey!
×
Author
Difficulty
Tuning
Filesize
Instruments
intermediate
B F# B E G# C#
158 Kb
rhythm guitar #1, rhythm guitar #2, rhythm guitar #3, rhythm guitar #4, rhythm guitar #5, lead guitar #1, lead guitar #2, lead guitar #3, bass, percussion #1, percussion #2, percussion #3, keyboard
"Dead Memories"
demo version
Play now

or get full version for Free

Get full version now!
To learn and play this song
in Tab Pro, start free trial
Start free trial

or get $10 off Welcome Bonus

Get welcome bonus
Get access to Tab Pro version of “Dead Memories”!
Tab Pro is a premium guitar tab service, available on PC, Mac, iOS and Android
START FREE TRIAL
Your download will start in 7 seconds
×
Like this song? We have more like this. Follow us on Facebook for more great tabs and guitar-related content
To download “Dead Memories” Guitar Pro tab click button below
Please note that you must have Guitar Pro software installed on your
computer in order to view this file.
comments
report bad tab
15 comments total. Showing first comments.
0 reply
XanatosSic 1,949 wrote on May 31 2012, 10:21 am

Very Great Tab!!!

0 reply
moejoe1205 71 wrote on May 29 2013, 05:09 am

i think the bass line in the chorus should be similar to the guitars:

D--------------------------------------------
A---------9-9-9---------------9-9-9-10-10-10
E---------------10-10----------------------
B---5-5-5--------------8-8-8----------------

D--------------------------------------------
A---------9-9-9-------------------9-9-9-10-10-10
E---------------10-10----------------------
B---0-0-0--------------10-10-10----------------

0 reply
moejoe1205 71 wrote on May 29 2013, 05:14 am

sry, wrote it down in the wron key, as I play it with a 5-string in BEADG

E--------------------------------------------
B---------7-7-7---------------7-7-7-8-8-8
F#----------------8-8----------------------
B---5-5-5--------------8-8-8----------------

E--------------------------------------------
B---------7-7-7-------------------7-7-7-8-8-8
F#----------------8-8----------------------
B---0-0-0--------------10-10-10----------------

guest
You may want to rate the tab now too:
select rating
Please do not post tabs as comments. Select "correction" instead!